ISO-10303-21;
HEADER;
/* Generated by software containing ST-Developer
 * from STEP Tools, Inc. (www.steptools.com) 
 */

FILE_DESCRIPTION(
/* description */ (''),
/* implementation_level */ '2;1');

FILE_NAME(
/* name */ 'platine_milieu.step',
/* time_stamp */ '2024-11-10T17:54:15+01:00',
/* author */ (''),
/* organization */ (''),
/* preprocessor_version */ 'ST-DEVELOPER v20',
/* originating_system */ 'Autodesk Translation Framework v13.14.0.145',

/* authorisation */ '');

FILE_SCHEMA (('AUTOMOTIVE_DESIGN { 1 0 10303 214 3 1 1 }'));
ENDSEC;

DATA;
#10=MECHANICAL_DESIGN_GEOMETRIC_PRESENTATION_REPRESENTATION('',(#13),#187);
#11=SHAPE_REPRESENTATION_RELATIONSHIP('SRR','None',#194,#12);
#12=ADVANCED_BREP_SHAPE_REPRESENTATION('',(#14),#186);
#13=STYLED_ITEM('',(#203),#14);
#14=MANIFOLD_SOLID_BREP('Corps3',#103);
#15=CIRCLE('',#119,8.);
#16=CIRCLE('',#120,8.);
#17=CIRCLE('',#123,8.);
#18=CIRCLE('',#124,8.);
#19=CYLINDRICAL_SURFACE('',#118,8.);
#20=CYLINDRICAL_SURFACE('',#122,8.);
#21=FACE_OUTER_BOUND('',#27,.T.);
#22=FACE_OUTER_BOUND('',#28,.T.);
#23=FACE_OUTER_BOUND('',#29,.T.);
#24=FACE_OUTER_BOUND('',#30,.T.);
#25=FACE_OUTER_BOUND('',#31,.T.);
#26=FACE_OUTER_BOUND('',#32,.T.);
#27=EDGE_LOOP('',(#69,#70,#71,#72));
#28=EDGE_LOOP('',(#73,#74,#75,#76));
#29=EDGE_LOOP('',(#77,#78,#79,#80));
#30=EDGE_LOOP('',(#81,#82,#83,#84));
#31=EDGE_LOOP('',(#85,#86,#87,#88));
#32=EDGE_LOOP('',(#89,#90,#91,#92));
#33=LINE('',#161,#41);
#34=LINE('',#163,#42);
#35=LINE('',#165,#43);
#36=LINE('',#166,#44);
#37=LINE('',#172,#45);
#38=LINE('',#175,#46);
#39=LINE('',#177,#47);
#40=LINE('',#178,#48);
#41=VECTOR('',#131,10.);
#42=VECTOR('',#132,10.);
#43=VECTOR('',#133,10.);
#44=VECTOR('',#134,10.);
#45=VECTOR('',#141,10.);
#46=VECTOR('',#144,10.);
#47=VECTOR('',#145,10.);
#48=VECTOR('',#146,10.);
#49=VERTEX_POINT('',#159);
#50=VERTEX_POINT('',#160);
#51=VERTEX_POINT('',#162);
#52=VERTEX_POINT('',#164);
#53=VERTEX_POINT('',#168);
#54=VERTEX_POINT('',#170);
#55=VERTEX_POINT('',#174);
#56=VERTEX_POINT('',#176);
#57=EDGE_CURVE('',#49,#50,#33,.T.);
#58=EDGE_CURVE('',#49,#51,#34,.T.);
#59=EDGE_CURVE('',#52,#51,#35,.T.);
#60=EDGE_CURVE('',#50,#52,#36,.T.);
#61=EDGE_CURVE('',#50,#53,#15,.T.);
#62=EDGE_CURVE('',#54,#52,#16,.T.);
#63=EDGE_CURVE('',#53,#54,#37,.T.);
#64=EDGE_CURVE('',#53,#55,#38,.T.);
#65=EDGE_CURVE('',#56,#54,#39,.T.);
#66=EDGE_CURVE('',#55,#56,#40,.T.);
#67=EDGE_CURVE('',#55,#49,#17,.T.);
#68=EDGE_CURVE('',#51,#56,#18,.T.);
#69=ORIENTED_EDGE('',*,*,#57,.F.);
#70=ORIENTED_EDGE('',*,*,#58,.T.);
#71=ORIENTED_EDGE('',*,*,#59,.F.);
#72=ORIENTED_EDGE('',*,*,#60,.F.);
#73=ORIENTED_EDGE('',*,*,#61,.F.);
#74=ORIENTED_EDGE('',*,*,#60,.T.);
#75=ORIENTED_EDGE('',*,*,#62,.F.);
#76=ORIENTED_EDGE('',*,*,#63,.F.);
#77=ORIENTED_EDGE('',*,*,#64,.F.);
#78=ORIENTED_EDGE('',*,*,#63,.T.);
#79=ORIENTED_EDGE('',*,*,#65,.F.);
#80=ORIENTED_EDGE('',*,*,#66,.F.);
#81=ORIENTED_EDGE('',*,*,#67,.F.);
#82=ORIENTED_EDGE('',*,*,#66,.T.);
#83=ORIENTED_EDGE('',*,*,#68,.F.);
#84=ORIENTED_EDGE('',*,*,#58,.F.);
#85=ORIENTED_EDGE('',*,*,#68,.T.);
#86=ORIENTED_EDGE('',*,*,#65,.T.);
#87=ORIENTED_EDGE('',*,*,#62,.T.);
#88=ORIENTED_EDGE('',*,*,#59,.T.);
#89=ORIENTED_EDGE('',*,*,#67,.T.);
#90=ORIENTED_EDGE('',*,*,#57,.T.);
#91=ORIENTED_EDGE('',*,*,#61,.T.);
#92=ORIENTED_EDGE('',*,*,#64,.T.);
#93=PLANE('',#117);
#94=PLANE('',#121);
#95=PLANE('',#125);
#96=PLANE('',#126);
#97=ADVANCED_FACE('',(#21),#93,.T.);
#98=ADVANCED_FACE('',(#22),#19,.F.);
#99=ADVANCED_FACE('',(#23),#94,.T.);
#100=ADVANCED_FACE('',(#24),#20,.F.);
#101=ADVANCED_FACE('',(#25),#95,.T.);
#102=ADVANCED_FACE('',(#26),#96,.F.);
#103=CLOSED_SHELL('',(#97,#98,#99,#100,#101,#102));
#104=DERIVED_UNIT_ELEMENT(#106,1.);
#105=DERIVED_UNIT_ELEMENT(#189,-3.);
#106=(
MASS_UNIT()
NAMED_UNIT(*)
SI_UNIT(.KILO.,.GRAM.)
);
#107=DERIVED_UNIT((#104,#105));
#108=MEASURE_REPRESENTATION_ITEM('density measure',
POSITIVE_RATIO_MEASURE(7850.),#107);
#109=PROPERTY_DEFINITION_REPRESENTATION(#114,#111);
#110=PROPERTY_DEFINITION_REPRESENTATION(#115,#112);
#111=REPRESENTATION('material name',(#113),#186);
#112=REPRESENTATION('density',(#108),#186);
#113=DESCRIPTIVE_REPRESENTATION_ITEM('Acier','Acier');
#114=PROPERTY_DEFINITION('material property','material name',#196);
#115=PROPERTY_DEFINITION('material property','density of part',#196);
#116=AXIS2_PLACEMENT_3D('',#157,#127,#128);
#117=AXIS2_PLACEMENT_3D('',#158,#129,#130);
#118=AXIS2_PLACEMENT_3D('',#167,#135,#136);
#119=AXIS2_PLACEMENT_3D('',#169,#137,#138);
#120=AXIS2_PLACEMENT_3D('',#171,#139,#140);
#121=AXIS2_PLACEMENT_3D('',#173,#142,#143);
#122=AXIS2_PLACEMENT_3D('',#179,#147,#148);
#123=AXIS2_PLACEMENT_3D('',#180,#149,#150);
#124=AXIS2_PLACEMENT_3D('',#181,#151,#152);
#125=AXIS2_PLACEMENT_3D('',#182,#153,#154);
#126=AXIS2_PLACEMENT_3D('',#183,#155,#156);
#127=DIRECTION('axis',(0.,0.,1.));
#128=DIRECTION('refdir',(1.,0.,0.));
#129=DIRECTION('center_axis',(-5.88302215670543E-17,-1.,0.));
#130=DIRECTION('ref_axis',(1.,-5.88302215670543E-17,0.));
#131=DIRECTION('',(-1.,5.88302215670543E-17,0.));
#132=DIRECTION('',(0.,0.,1.));
#133=DIRECTION('',(1.,-5.88302215670543E-17,0.));
#134=DIRECTION('',(0.,0.,1.));
#135=DIRECTION('center_axis',(0.,0.,1.));
#136=DIRECTION('ref_axis',(0.766044443118978,-0.642787609686539,0.));
#137=DIRECTION('center_axis',(0.,0.,1.));
#138=DIRECTION('ref_axis',(0.766044443118978,-0.642787609686539,0.));
#139=DIRECTION('center_axis',(0.,0.,-1.));
#140=DIRECTION('ref_axis',(0.766044443118978,-0.642787609686539,0.));
#141=DIRECTION('',(0.,0.,1.));
#142=DIRECTION('center_axis',(0.,1.,0.));
#143=DIRECTION('ref_axis',(-1.,0.,0.));
#144=DIRECTION('',(1.,0.,0.));
#145=DIRECTION('',(-1.,0.,0.));
#146=DIRECTION('',(0.,0.,1.));
#147=DIRECTION('center_axis',(0.,0.,1.));
#148=DIRECTION('ref_axis',(0.,1.,0.));
#149=DIRECTION('center_axis',(0.,0.,1.));
#150=DIRECTION('ref_axis',(0.,1.,0.));
#151=DIRECTION('center_axis',(0.,0.,-1.));
#152=DIRECTION('ref_axis',(0.,1.,0.));
#153=DIRECTION('center_axis',(0.,0.,1.));
#154=DIRECTION('ref_axis',(1.,0.,0.));
#155=DIRECTION('center_axis',(0.,0.,1.));
#156=DIRECTION('ref_axis',(1.,0.,0.));
#157=CARTESIAN_POINT('',(0.,0.,0.));
#158=CARTESIAN_POINT('Origin',(34.3145521314229,3.85769937582743,0.));
#159=CARTESIAN_POINT('',(72.0578410415193,3.85769937582743,0.));
#160=CARTESIAN_POINT('',(34.3145521314229,3.85769937582743,0.));
#161=CARTESIAN_POINT('',(72.0578410415193,3.85769937582743,0.));
#162=CARTESIAN_POINT('',(72.0578410415193,3.85769937582743,4.));
#163=CARTESIAN_POINT('',(72.0578410415193,3.85769937582743,0.));
#164=CARTESIAN_POINT('',(34.3145521314229,3.85769937582743,4.));
#165=CARTESIAN_POINT('',(72.0578410415193,3.85769937582743,4.));
#166=CARTESIAN_POINT('',(34.3145521314229,3.85769937582743,0.));
#167=CARTESIAN_POINT('Origin',(28.1861965864711,9.00000025331974,0.));
#168=CARTESIAN_POINT('',(28.1861965864711,17.0000002533197,0.));
#169=CARTESIAN_POINT('Origin',(28.1861965864711,9.00000025331974,0.));
#170=CARTESIAN_POINT('',(28.1861965864711,17.0000002533197,4.));
#171=CARTESIAN_POINT('Origin',(28.1861965864711,9.00000025331974,4.));
#172=CARTESIAN_POINT('',(28.1861965864711,17.0000002533197,0.));
#173=CARTESIAN_POINT('Origin',(78.1861965864711,17.0000002533197,0.));
#174=CARTESIAN_POINT('',(78.1861965864711,17.0000002533197,0.));
#175=CARTESIAN_POINT('',(28.1861965864711,17.0000002533197,0.));
#176=CARTESIAN_POINT('',(78.1861965864711,17.0000002533197,4.));
#177=CARTESIAN_POINT('',(28.1861965864711,17.0000002533197,4.));
#178=CARTESIAN_POINT('',(78.1861965864711,17.0000002533197,0.));
#179=CARTESIAN_POINT('Origin',(78.1861965864711,9.00000025331974,0.));
#180=CARTESIAN_POINT('Origin',(78.1861965864711,9.00000025331974,0.));
#181=CARTESIAN_POINT('Origin',(78.1861965864711,9.00000025331974,4.));
#182=CARTESIAN_POINT('Origin',(53.1861965864711,10.4288498145736,4.));
#183=CARTESIAN_POINT('Origin',(53.1861965864711,10.4288498145736,0.));
#184=UNCERTAINTY_MEASURE_WITH_UNIT(LENGTH_MEASURE(0.01),#188,
'DISTANCE_ACCURACY_VALUE',
'Maximum model space distance between geometric entities at asserted c
onnectivities');
#185=UNCERTAINTY_MEASURE_WITH_UNIT(LENGTH_MEASURE(0.01),#188,
'DISTANCE_ACCURACY_VALUE',
'Maximum model space distance between geometric entities at asserted c
onnectivities');
#186=(
GEOMETRIC_REPRESENTATION_CONTEXT(3)
GLOBAL_UNCERTAINTY_ASSIGNED_CONTEXT((#184))
GLOBAL_UNIT_ASSIGNED_CONTEXT((#188,#190,#191))
REPRESENTATION_CONTEXT('','3D')
);
#187=(
GEOMETRIC_REPRESENTATION_CONTEXT(3)
GLOBAL_UNCERTAINTY_ASSIGNED_CONTEXT((#185))
GLOBAL_UNIT_ASSIGNED_CONTEXT((#188,#190,#191))
REPRESENTATION_CONTEXT('','3D')
);
#188=(
LENGTH_UNIT()
NAMED_UNIT(*)
SI_UNIT(.MILLI.,.METRE.)
);
#189=(
LENGTH_UNIT()
NAMED_UNIT(*)
SI_UNIT($,.METRE.)
);
#190=(
NAMED_UNIT(*)
PLANE_ANGLE_UNIT()
SI_UNIT($,.RADIAN.)
);
#191=(
NAMED_UNIT(*)
SI_UNIT($,.STERADIAN.)
SOLID_ANGLE_UNIT()
);
#192=SHAPE_DEFINITION_REPRESENTATION(#193,#194);
#193=PRODUCT_DEFINITION_SHAPE('',$,#196);
#194=SHAPE_REPRESENTATION('',(#116),#186);
#195=PRODUCT_DEFINITION_CONTEXT('part definition',#200,'design');
#196=PRODUCT_DEFINITION('assemblage_platine_milieu',
'assemblage_platine_milieu v1',#197,#195);
#197=PRODUCT_DEFINITION_FORMATION('',$,#202);
#198=PRODUCT_RELATED_PRODUCT_CATEGORY('assemblage_platine_milieu v1',
'assemblage_platine_milieu v1',(#202));
#199=APPLICATION_PROTOCOL_DEFINITION('international standard',
'automotive_design',2009,#200);
#200=APPLICATION_CONTEXT(
'Core Data for Automotive Mechanical Design Process');
#201=PRODUCT_CONTEXT('part definition',#200,'mechanical');
#202=PRODUCT('assemblage_platine_milieu','assemblage_platine_milieu v1',
$,(#201));
#203=PRESENTATION_STYLE_ASSIGNMENT((#204));
#204=SURFACE_STYLE_USAGE(.BOTH.,#205);
#205=SURFACE_SIDE_STYLE('',(#206));
#206=SURFACE_STYLE_FILL_AREA(#207);
#207=FILL_AREA_STYLE('Acier - Satin\X\E9',(#208));
#208=FILL_AREA_STYLE_COLOUR('Acier - Satin\X\E9',#209);
#209=COLOUR_RGB('Acier - Satin\X\E9',0.627450980392157,0.627450980392157,
0.627450980392157);
ENDSEC;
END-ISO-10303-21;
