ISO-10303-21;
HEADER;
FILE_DESCRIPTION (( 'STEP AP203' ),
    '1' );
FILE_NAME ('flasque.STEP',
    '2024-11-30T20:27:30',
    ( '' ),
    ( '' ),
    'SwSTEP 2.0',
    'SolidWorks 2024',
    '' );
FILE_SCHEMA (( 'CONFIG_CONTROL_DESIGN' ));
ENDSEC;

DATA;
#1 = CIRCLE ( 'NONE', #116, 22.64999999999999858 ) ;
#2 = DIRECTION ( 'NONE',  ( 0.000000000000000000, 0.000000000000000000, 1.000000000000000000 ) ) ;
#3 = EDGE_CURVE ( 'NONE', #182, #338, #266, .T. ) ;
#4 = EDGE_CURVE ( 'NONE', #338, #186, #271, .T. ) ;
#5 = SHAPE_DEFINITION_REPRESENTATION ( #188, #281 ) ;
#6 = FACE_OUTER_BOUND ( 'NONE', #408, .T. ) ;
#7 = CARTESIAN_POINT ( 'NONE',  ( 0.000000000000000000, -2.000000000000000000, 0.000000000000000000 ) ) ;
#8 = CARTESIAN_POINT ( 'NONE',  ( 0.000000000000000000, 4.000000000000000000, 0.000000000000000000 ) ) ;
#9 = VECTOR ( 'NONE', #307, 1000.000000000000000 ) ;
#10 = EDGE_LOOP ( 'NONE', ( #32, #140 ) ) ;
#11 = DIRECTION ( 'NONE',  ( -0.000000000000000000, -1.000000000000000000, -0.000000000000000000 ) ) ;
#12 = APPROVAL_PERSON_ORGANIZATION ( #396, #62, #276 ) ;
#13 = ORIENTED_EDGE ( 'NONE', *, *, #133, .F. ) ;
#14 = ORIENTED_EDGE ( 'NONE', *, *, #3, .T. ) ;
#15 = CALENDAR_DATE ( 2024, 30, 11 ) ;
#16 = DATE_TIME_ROLE ( 'creation_date' ) ;
#17 = ADVANCED_FACE ( 'NONE', ( #300 ), #105, .T. ) ;
#18 = CARTESIAN_POINT ( 'NONE',  ( 0.000000000000000000, 4.000000000000000000, -11.75000000000000178 ) ) ;
#19 = DATE_TIME_ROLE ( 'classification_date' ) ;
#20 = CARTESIAN_POINT ( 'NONE',  ( 0.000000000000000000, -2.000000000000000000, 12.67500000000000071 ) ) ;
#21 = PERSON_AND_ORGANIZATION_ROLE ( 'design_supplier' ) ;
#22 = EDGE_LOOP ( 'NONE', ( #296, #397, #213, #56 ) ) ;
#23 = CARTESIAN_POINT ( 'NONE',  ( 0.000000000000000000, 4.000000000000000000, 0.000000000000000000 ) ) ;
#24 = CC_DESIGN_PERSON_AND_ORGANIZATION_ASSIGNMENT ( #237, #363, ( #30 ) ) ;
#25 = EDGE_CURVE ( 'NONE', #377, #174, #383, .T. ) ;
#26 = ORIENTED_EDGE ( 'NONE', *, *, #279, .T. ) ;
#27 = ORIENTED_EDGE ( 'NONE', *, *, #324, .F. ) ;
#28 = DIRECTION ( 'NONE',  ( -0.000000000000000000, -1.000000000000000000, -0.000000000000000000 ) ) ;
#29 = CARTESIAN_POINT ( 'NONE',  ( 0.000000000000000000, -2.000000000000000000, 0.000000000000000000 ) ) ;
#30 = SECURITY_CLASSIFICATION ( '', '', #152 ) ;
#31 = DIRECTION ( 'NONE',  ( 0.000000000000000000, 0.000000000000000000, 1.000000000000000000 ) ) ;
#32 = ORIENTED_EDGE ( 'NONE', *, *, #370, .T. ) ;
#33 = FACE_OUTER_BOUND ( 'NONE', #22, .T. ) ;
#34 = EDGE_CURVE ( 'NONE', #388, #186, #359, .T. ) ;
#35 = AXIS2_PLACEMENT_3D ( 'NONE', #374, #378, #63 ) ;
#36 = CARTESIAN_POINT ( 'NONE',  ( 0.000000000000000000, -2.000000000000000000, 0.000000000000000000 ) ) ;
#37 = AXIS2_PLACEMENT_3D ( 'NONE', #69, #64, #136 ) ;
#38 = CARTESIAN_POINT ( 'NONE',  ( 9.797174393178825657E-16, 5.700000000000000178, -8.000000000000000000 ) ) ;
#39 = DIRECTION ( 'NONE',  ( 0.000000000000000000, -0.000000000000000000, 1.000000000000000000 ) ) ;
#40 = DIRECTION ( 'NONE',  ( 0.000000000000000000, 0.000000000000000000, 1.000000000000000000 ) ) ;
#41 = ORIENTED_EDGE ( 'NONE', *, *, #137, .T. ) ;
#42 = EDGE_LOOP ( 'NONE', ( #321, #72 ) ) ;
#43 = DIRECTION ( 'NONE',  ( 0.000000000000000000, 0.000000000000000000, 1.000000000000000000 ) ) ;
#44 = COORDINATED_UNIVERSAL_TIME_OFFSET ( 1, 0, .AHEAD. ) ;
#45 = COORDINATED_UNIVERSAL_TIME_OFFSET ( 1, 0, .AHEAD. ) ;
#46 = AXIS2_PLACEMENT_3D ( 'NONE', #256, #287, #128 ) ;
#47 = LINE ( 'NONE', #180, #9 ) ;
#48 = DATE_AND_TIME ( #241, #196 ) ;
#49 = ORIENTED_EDGE ( 'NONE', *, *, #179, .T. ) ;
#50 = APPROVAL_PERSON_ORGANIZATION ( #304, #78, #76 ) ;
#51 = DIRECTION ( 'NONE',  ( 0.000000000000000000, 1.000000000000000000, 0.000000000000000000 ) ) ;
#52 = EDGE_CURVE ( 'NONE', #403, #163, #292, .T. ) ;
#53 = ORIENTED_EDGE ( 'NONE', *, *, #272, .F. ) ;
#54 = AXIS2_PLACEMENT_3D ( 'NONE', #120, #245, #367 ) ;
#55 = EDGE_CURVE ( 'NONE', #309, #330, #232, .T. ) ;
#56 = ORIENTED_EDGE ( 'NONE', *, *, #52, .F. ) ;
#57 = DIRECTION ( 'NONE',  ( 0.000000000000000000, 1.000000000000000000, 0.000000000000000000 ) ) ;
#58 = AXIS2_PLACEMENT_3D ( 'NONE', #7, #233, #263 ) ;
#59 = ORIENTED_EDGE ( 'NONE', *, *, #303, .F. ) ;
#60 = FACE_OUTER_BOUND ( 'NONE', #83, .T. ) ;
#61 = DIRECTION ( 'NONE',  ( 0.000000000000000000, -0.000000000000000000, 1.000000000000000000 ) ) ;
#62 = APPROVAL ( #74, 'UNSPECIFIED' ) ;
#63 = DIRECTION ( 'NONE',  ( 0.000000000000000000, 0.000000000000000000, 1.000000000000000000 ) ) ;
#64 = DIRECTION ( 'NONE',  ( 0.000000000000000000, -1.000000000000000000, 0.000000000000000000 ) ) ;
#65 = DIRECTION ( 'NONE',  ( -0.000000000000000000, -1.000000000000000000, -0.000000000000000000 ) ) ;
#66 = AXIS2_PLACEMENT_3D ( 'NONE', #195, #221, #348 ) ;
#67 = DIRECTION ( 'NONE',  ( 0.000000000000000000, 1.000000000000000000, 0.000000000000000000 ) ) ;
#68 = APPROVAL_DATE_TIME ( #121, #62 ) ;
#69 = CARTESIAN_POINT ( 'NONE',  ( 0.000000000000000000, -2.000000000000000000, 0.000000000000000000 ) ) ;
#70 = CARTESIAN_POINT ( 'NONE',  ( 0.000000000000000000, 4.000000000000000000, 0.000000000000000000 ) ) ;
#71 = APPLICATION_CONTEXT ( 'configuration controlled 3d designs of mechanical parts and assemblies' ) ;
#72 = ORIENTED_EDGE ( 'NONE', *, *, #55, .T. ) ;
#73 = CARTESIAN_POINT ( 'NONE',  ( 1.552239817919270291E-15, -2.000000000000000000, -12.67500000000000071 ) ) ;
#74 = APPROVAL_STATUS ( 'not_yet_approved' ) ;
#75 = VECTOR ( 'NONE', #346, 1000.000000000000000 ) ;
#76 = APPROVAL_ROLE ( '' ) ;
#77 = AXIS2_PLACEMENT_3D ( 'NONE', #138, #67, #356 ) ;
#78 = APPROVAL ( #391, 'UNSPECIFIED' ) ;
#79 = EDGE_CURVE ( 'NONE', #186, #338, #335, .T. ) ;
#80 = PERSON_AND_ORGANIZATION ( #339, #248 ) ;
#81 = DIRECTION ( 'NONE',  ( 0.000000000000000000, 0.000000000000000000, -1.000000000000000000 ) ) ;
#82 = PERSON_AND_ORGANIZATION_ROLE ( 'creator' ) ;
#83 = EDGE_LOOP ( 'NONE', ( #89, #342, #49, #217 ) ) ;
#84 = CIRCLE ( 'NONE', #148, 11.75000000000000178 ) ;
#85 = CARTESIAN_POINT ( 'NONE',  ( 0.000000000000000000, 5.700000000000000178, 8.000000000000000000 ) ) ;
#86 = CC_DESIGN_APPROVAL ( #112, ( #320 ) ) ;
#87 = ORIENTED_EDGE ( 'NONE', *, *, #157, .T. ) ;
#88 = AXIS2_PLACEMENT_3D ( 'NONE', #127, #28, #190 ) ;
#89 = ORIENTED_EDGE ( 'NONE', *, *, #354, .F. ) ;
#90 = DESIGN_CONTEXT ( 'detailed design', #317, 'design' ) ;
#91 = CARTESIAN_POINT ( 'NONE',  ( 0.000000000000000000, 0.000000000000000000, 8.000000000000000000 ) ) ;
#92 = CYLINDRICAL_SURFACE ( 'NONE', #66, 8.000000000000000000 ) ;
#93 = CC_DESIGN_PERSON_AND_ORGANIZATION_ASSIGNMENT ( #387, #146, ( #320 ) ) ;
#94 = CARTESIAN_POINT ( 'NONE',  ( 0.000000000000000000, 5.700000000000000178, 0.000000000000000000 ) ) ;
#95 = AXIS2_PLACEMENT_3D ( 'NONE', #70, #57, #31 ) ;
#96 = EDGE_LOOP ( 'NONE', ( #27, #345, #41, #249 ) ) ;
#97 = DIRECTION ( 'NONE',  ( 0.000000000000000000, 1.000000000000000000, 0.000000000000000000 ) ) ;
#98 = CARTESIAN_POINT ( 'NONE',  ( 1.438959988998140357E-15, 5.700000000000000178, 11.75000000000000178 ) ) ;
#99 = ADVANCED_FACE ( 'NONE', ( #220, #314 ), #193, .F. ) ;
#100 = DIRECTION ( 'NONE',  ( 0.000000000000000000, 0.000000000000000000, 1.000000000000000000 ) ) ;
#101 = DIRECTION ( 'NONE',  ( 0.000000000000000000, 1.000000000000000000, 0.000000000000000000 ) ) ;
#102 = EDGE_CURVE ( 'NONE', #163, #403, #200, .T. ) ;
#103 = VECTOR ( 'NONE', #255, 1000.000000000000000 ) ;
#104 = DIRECTION ( 'NONE',  ( 0.000000000000000000, -1.000000000000000000, 0.000000000000000000 ) ) ;
#105 = CYLINDRICAL_SURFACE ( 'NONE', #376, 11.75000000000000178 ) ;
#106 = APPROVAL_PERSON_ORGANIZATION ( #337, #112, #142 ) ;
#107 = DIRECTION ( 'NONE',  ( 0.000000000000000000, 1.000000000000000000, 0.000000000000000000 ) ) ;
#108 = ORIENTED_EDGE ( 'NONE', *, *, #25, .F. ) ;
#109 = CARTESIAN_POINT ( 'NONE',  ( 0.000000000000000000, 0.000000000000000000, 0.000000000000000000 ) ) ;
#110 = APPROVAL_DATE_TIME ( #48, #112 ) ;
#111 = ORIENTED_EDGE ( 'NONE', *, *, #102, .T. ) ;
#112 = APPROVAL ( #115, 'UNSPECIFIED' ) ;
#113 = ADVANCED_FACE ( 'NONE', ( #223 ), #162, .T. ) ;
#114 = AXIS2_PLACEMENT_3D ( 'NONE', #94, #197, #318 ) ;
#115 = APPROVAL_STATUS ( 'not_yet_approved' ) ;
#116 = AXIS2_PLACEMENT_3D ( 'NONE', #199, #325, #2 ) ;
#117 = CARTESIAN_POINT ( 'NONE',  ( 0.000000000000000000, 5.700000000000000178, 0.000000000000000000 ) ) ;
#118 = DATE_AND_TIME ( #15, #350 ) ;
#119 = ORIENTED_EDGE ( 'NONE', *, *, #52, .T. ) ;
#120 = CARTESIAN_POINT ( 'NONE',  ( 0.000000000000000000, 4.000000000000000000, 0.000000000000000000 ) ) ;
#121 = DATE_AND_TIME ( #399, #227 ) ;
#122 = CIRCLE ( 'NONE', #371, 12.67500000000000071 ) ;
#123 = EDGE_LOOP ( 'NONE', ( #203, #108 ) ) ;
#124 = CIRCLE ( 'NONE', #305, 8.000000000000000000 ) ;
#125 = EDGE_LOOP ( 'NONE', ( #144, #59, #14, #404 ) ) ;
#126 = CIRCLE ( 'NONE', #77, 22.64999999999999858 ) ;
#127 = CARTESIAN_POINT ( 'NONE',  ( 0.000000000000000000, 0.000000000000000000, 0.000000000000000000 ) ) ;
#128 = DIRECTION ( 'NONE',  ( 0.000000000000000000, 0.000000000000000000, -1.000000000000000000 ) ) ;
#129 = LINE ( 'NONE', #91, #103 ) ;
#130 = ORIENTED_EDGE ( 'NONE', *, *, #79, .T. ) ;
#131 = CARTESIAN_POINT ( 'NONE',  ( 0.000000000000000000, -2.000000000000000000, 8.000000000000000000 ) ) ;
#132 = DIRECTION ( 'NONE',  ( 0.000000000000000000, -1.000000000000000000, 0.000000000000000000 ) ) ;
#133 = EDGE_CURVE ( 'NONE', #258, #163, #129, .T. ) ;
#134 = AXIS2_PLACEMENT_3D ( 'NONE', #381, #101, #323 ) ;
#135 =( NAMED_UNIT ( * ) PLANE_ANGLE_UNIT ( ) SI_UNIT ( $, .RADIAN. ) );
#136 = DIRECTION ( 'NONE',  ( 0.000000000000000000, -0.000000000000000000, -1.000000000000000000 ) ) ;
#137 = EDGE_CURVE ( 'NONE', #280, #174, #405, .T. ) ;
#138 = CARTESIAN_POINT ( 'NONE',  ( 0.000000000000000000, 4.000000000000000000, 0.000000000000000000 ) ) ;
#139 = CARTESIAN_POINT ( 'NONE',  ( 1.552239817919270291E-15, -2.000000000000000000, -12.67500000000000071 ) ) ;
#140 = ORIENTED_EDGE ( 'NONE', *, *, #272, .T. ) ;
#141 = DIRECTION ( 'NONE',  ( -0.000000000000000000, -1.000000000000000000, -0.000000000000000000 ) ) ;
#142 = APPROVAL_ROLE ( '' ) ;
#143 = CC_DESIGN_PERSON_AND_ORGANIZATION_ASSIGNMENT ( #334, #308, ( #252 ) ) ;
#144 = ORIENTED_EDGE ( 'NONE', *, *, #34, .F. ) ;
#145 = ORIENTED_EDGE ( 'NONE', *, *, #354, .T. ) ;
#146 = PERSON_AND_ORGANIZATION_ROLE ( 'creator' ) ;
#147 = DIRECTION ( 'NONE',  ( 1.000000000000000000, 0.000000000000000000, 0.000000000000000000 ) ) ;
#148 = AXIS2_PLACEMENT_3D ( 'NONE', #409, #97, #100 ) ;
#149 = FACE_OUTER_BOUND ( 'NONE', #369, .T. ) ;
#150 = DATE_AND_TIME ( #306, #173 ) ;
#151 = FACE_BOUND ( 'NONE', #123, .T. ) ;
#152 = SECURITY_CLASSIFICATION_LEVEL ( 'unclassified' ) ;
#153 = EDGE_LOOP ( 'NONE', ( #224, #313 ) ) ;
#154 = AXIS2_PLACEMENT_3D ( 'NONE', #109, #11, #40 ) ;
#155 = ORIENTED_EDGE ( 'NONE', *, *, #303, .T. ) ;
#156 = CC_DESIGN_DATE_AND_TIME_ASSIGNMENT ( #150, #19, ( #30 ) ) ;
#157 = EDGE_CURVE ( 'NONE', #244, #403, #257, .T. ) ;
#158 = AXIS2_PLACEMENT_3D ( 'NONE', #329, #297, #386 ) ;
#159 = ORIENTED_EDGE ( 'NONE', *, *, #25, .T. ) ;
#160 = DIRECTION ( 'NONE',  ( 0.000000000000000000, 1.000000000000000000, 0.000000000000000000 ) ) ;
#161 = DIRECTION ( 'NONE',  ( 0.000000000000000000, 1.000000000000000000, 0.000000000000000000 ) ) ;
#162 = CYLINDRICAL_SURFACE ( 'NONE', #343, 12.67500000000000071 ) ;
#163 = VERTEX_POINT ( 'NONE', #85 ) ;
#164 = CARTESIAN_POINT ( 'NONE',  ( 0.000000000000000000, 0.000000000000000000, 0.000000000000000000 ) ) ;
#165 = VECTOR ( 'NONE', #364, 1000.000000000000000 ) ;
#166 = LINE ( 'NONE', #295, #283 ) ;
#167 = CARTESIAN_POINT ( 'NONE',  ( 2.773825000068754813E-15, 4.000000000000000000, 22.64999999999999858 ) ) ;
#168 = VERTEX_POINT ( 'NONE', #310 ) ;
#169 = DIRECTION ( 'NONE',  ( 0.000000000000000000, 0.000000000000000000, -1.000000000000000000 ) ) ;
#170 = ADVANCED_FACE ( 'NONE', ( #149 ), #183, .T. ) ;
#171 = ORIENTED_EDGE ( 'NONE', *, *, #282, .T. ) ;
#172 = DIRECTION ( 'NONE',  ( -0.000000000000000000, 1.000000000000000000, -0.000000000000000000 ) ) ;
#173 = LOCAL_TIME ( 21, 27, 30.00000000000000000, #177 ) ;
#174 = VERTEX_POINT ( 'NONE', #18 ) ;
#175 = ADVANCED_FACE ( 'NONE', ( #395 ), #212, .T. ) ;
#176 = CALENDAR_DATE ( 2024, 30, 11 ) ;
#177 = COORDINATED_UNIVERSAL_TIME_OFFSET ( 1, 0, .AHEAD. ) ;
#178 = VECTOR ( 'NONE', #234, 1000.000000000000000 ) ;
#179 = EDGE_CURVE ( 'NONE', #330, #168, #47, .T. ) ;
#180 = CARTESIAN_POINT ( 'NONE',  ( 0.000000000000000000, 4.000000000000000000, -22.64999999999999858 ) ) ;
#181 =( NAMED_UNIT ( * ) SI_UNIT ( $, .STERADIAN. ) SOLID_ANGLE_UNIT ( ) );
#182 = VERTEX_POINT ( 'NONE', #20 ) ;
#183 = CYLINDRICAL_SURFACE ( 'NONE', #240, 22.64999999999999858 ) ;
#184 = VECTOR ( 'NONE', #353, 1000.000000000000000 ) ;
#185 = ADVANCED_FACE ( 'NONE', ( #151, #398 ), #275, .T. ) ;
#186 = VERTEX_POINT ( 'NONE', #214 ) ;
#187 = MANIFOLD_SOLID_BREP ( 'Enl\X2\00e8\X0\v. mat.-Extru.5', #278 ) ;
#188 = PRODUCT_DEFINITION_SHAPE ( 'NONE', 'NONE',  #319 ) ;
#189 = ORIENTED_EDGE ( 'NONE', *, *, #55, .F. ) ;
#190 = DIRECTION ( 'NONE',  ( 0.000000000000000000, 0.000000000000000000, 1.000000000000000000 ) ) ;
#191 = UNCERTAINTY_MEASURE_WITH_UNIT (LENGTH_MEASURE( 1.000000000000000082E-05 ), #382, 'distance_accuracy_value', 'NONE');
#192 = CARTESIAN_POINT ( 'NONE',  ( 9.797174393178825657E-16, -2.000000000000000000, -8.000000000000000000 ) ) ;
#193 = PLANE ( 'NONE',  #206 ) ;
#194 = EDGE_LOOP ( 'NONE', ( #299, #365, #159, #358 ) ) ;
#195 = CARTESIAN_POINT ( 'NONE',  ( 0.000000000000000000, 0.000000000000000000, 0.000000000000000000 ) ) ;
#196 = LOCAL_TIME ( 21, 27, 30.00000000000000000, #45 ) ;
#197 = DIRECTION ( 'NONE',  ( 0.000000000000000000, -1.000000000000000000, 0.000000000000000000 ) ) ;
#198 = DIRECTION ( 'NONE',  ( 0.000000000000000000, 0.000000000000000000, 1.000000000000000000 ) ) ;
#199 = CARTESIAN_POINT ( 'NONE',  ( 0.000000000000000000, 0.000000000000000000, 0.000000000000000000 ) ) ;
#200 = CIRCLE ( 'NONE', #114, 8.000000000000000000 ) ;
#201 = DIRECTION ( 'NONE',  ( 0.000000000000000000, 0.000000000000000000, -1.000000000000000000 ) ) ;
#202 = CARTESIAN_POINT ( 'NONE',  ( 0.000000000000000000, 4.000000000000000000, -22.64999999999999858 ) ) ;
#203 = ORIENTED_EDGE ( 'NONE', *, *, #362, .F. ) ;
#204 = EDGE_LOOP ( 'NONE', ( #26, #208 ) ) ;
#205 = DIRECTION ( 'NONE',  ( 0.000000000000000000, -1.000000000000000000, 0.000000000000000000 ) ) ;
#206 = AXIS2_PLACEMENT_3D ( 'NONE', #375, #160, #61 ) ;
#207 = EDGE_CURVE ( 'NONE', #385, #280, #251, .T. ) ;
#208 = ORIENTED_EDGE ( 'NONE', *, *, #207, .T. ) ;
#209 = APPROVAL_DATE_TIME ( #118, #78 ) ;
#210 = PERSON_AND_ORGANIZATION ( #339, #248 ) ;
#211 = ADVANCED_FACE ( 'NONE', ( #60 ), #322, .T. ) ;
#212 = CYLINDRICAL_SURFACE ( 'NONE', #360, 11.75000000000000178 ) ;
#213 = ORIENTED_EDGE ( 'NONE', *, *, #133, .T. ) ;
#214 = CARTESIAN_POINT ( 'NONE',  ( 1.552239817919270291E-15, 0.000000000000000000, -12.67500000000000071 ) ) ;
#215 = CC_DESIGN_SECURITY_CLASSIFICATION ( #30, ( #320 ) ) ;
#216 = CC_DESIGN_DATE_AND_TIME_ASSIGNMENT ( #393, #16, ( #319 ) ) ;
#217 = ORIENTED_EDGE ( 'NONE', *, *, #390, .T. ) ;
#218 = CIRCLE ( 'NONE', #35, 22.64999999999999858 ) ;
#219 = ORIENTED_EDGE ( 'NONE', *, *, #3, .F. ) ;
#220 = FACE_BOUND ( 'NONE', #153, .T. ) ;
#221 = DIRECTION ( 'NONE',  ( -0.000000000000000000, 1.000000000000000000, -0.000000000000000000 ) ) ;
#222 = CIRCLE ( 'NONE', #366, 12.67500000000000071 ) ;
#223 = FACE_OUTER_BOUND ( 'NONE', #333, .T. ) ;
#224 = ORIENTED_EDGE ( 'NONE', *, *, #4, .F. ) ;
#225 = FACE_OUTER_BOUND ( 'NONE', #238, .T. ) ;
#226 = FACE_BOUND ( 'NONE', #268, .T. ) ;
#227 = LOCAL_TIME ( 21, 27, 30.00000000000000000, #243 ) ;
#228 = CC_DESIGN_PERSON_AND_ORGANIZATION_ASSIGNMENT ( #210, #21, ( #320 ) ) ;
#229 = EDGE_CURVE ( 'NONE', #253, #168, #218, .T. ) ;
#230 = DIRECTION ( 'NONE',  ( 0.000000000000000000, 1.000000000000000000, 0.000000000000000000 ) ) ;
#231 = CARTESIAN_POINT ( 'NONE',  ( 1.438959988998140357E-15, 4.000000000000000000, 11.75000000000000178 ) ) ;
#232 = CIRCLE ( 'NONE', #95, 22.64999999999999858 ) ;
#233 = DIRECTION ( 'NONE',  ( -0.000000000000000000, 1.000000000000000000, -0.000000000000000000 ) ) ;
#234 = DIRECTION ( 'NONE',  ( -0.000000000000000000, 1.000000000000000000, -0.000000000000000000 ) ) ;
#235 = ORIENTED_EDGE ( 'NONE', *, *, #34, .T. ) ;
#236 = CARTESIAN_POINT ( 'NONE',  ( 0.000000000000000000, 5.700000000000000178, 0.000000000000000000 ) ) ;
#237 = PERSON_AND_ORGANIZATION ( #339, #248 ) ;
#238 = EDGE_LOOP ( 'NONE', ( #53, #87, #289, #13 ) ) ;
#239 = CARTESIAN_POINT ( 'NONE',  ( 0.000000000000000000, 0.000000000000000000, 0.000000000000000000 ) ) ;
#240 = AXIS2_PLACEMENT_3D ( 'NONE', #23, #274, #81 ) ;
#241 = CALENDAR_DATE ( 2024, 30, 11 ) ;
#242 = DIRECTION ( 'NONE',  ( -0.000000000000000000, -1.000000000000000000, -0.000000000000000000 ) ) ;
#243 = COORDINATED_UNIVERSAL_TIME_OFFSET ( 1, 0, .AHEAD. ) ;
#244 = VERTEX_POINT ( 'NONE', #192 ) ;
#245 = DIRECTION ( 'NONE',  ( 0.000000000000000000, 1.000000000000000000, 0.000000000000000000 ) ) ;
#246 = AXIS2_PLACEMENT_3D ( 'NONE', #291, #230, #39 ) ;
#247 = CC_DESIGN_PERSON_AND_ORGANIZATION_ASSIGNMENT ( #80, #82, ( #319 ) ) ;
#248 = ORGANIZATION ( 'UNSPECIFIED', 'UNSPECIFIED', '' ) ;
#249 = ORIENTED_EDGE ( 'NONE', *, *, #362, .T. ) ;
#250 = ADVANCED_FACE ( 'NONE', ( #225 ), #92, .F. ) ;
#251 = CIRCLE ( 'NONE', #392, 11.75000000000000178 ) ;
#252 = PRODUCT ( 'flasque', 'flasque', '', ( #301 ) ) ;
#253 = VERTEX_POINT ( 'NONE', #351 ) ;
#254 = ADVANCED_FACE ( 'NONE', ( #33 ), #316, .F. ) ;
#255 = DIRECTION ( 'NONE',  ( -0.000000000000000000, 1.000000000000000000, -0.000000000000000000 ) ) ;
#256 = CARTESIAN_POINT ( 'NONE',  ( 0.000000000000000000, 4.000000000000000000, 0.000000000000000000 ) ) ;
#257 = LINE ( 'NONE', #349, #165 ) ;
#258 = VERTEX_POINT ( 'NONE', #131 ) ;
#259 = DIRECTION ( 'NONE',  ( 0.000000000000000000, 0.000000000000000000, 1.000000000000000000 ) ) ;
#260 = DIRECTION ( 'NONE',  ( 0.000000000000000000, 0.000000000000000000, 1.000000000000000000 ) ) ;
#261 = CARTESIAN_POINT ( 'NONE',  ( 0.000000000000000000, -2.000000000000000000, 0.000000000000000000 ) ) ;
#262 = LINE ( 'NONE', #167, #184 ) ;
#263 = DIRECTION ( 'NONE',  ( 0.000000000000000000, 0.000000000000000000, 1.000000000000000000 ) ) ;
#264 = AXIS2_PLACEMENT_3D ( 'NONE', #164, #290, #259 ) ;
#265 = PLANE ( 'NONE',  #246 ) ;
#266 = LINE ( 'NONE', #389, #298 ) ;
#267 = ORIENTED_EDGE ( 'NONE', *, *, #282, .F. ) ;
#268 = EDGE_LOOP ( 'NONE', ( #111, #119 ) ) ;
#269 = APPLICATION_PROTOCOL_DEFINITION ( 'international standard', 'config_control_design', 1994, #71 ) ;
#270 = COORDINATED_UNIVERSAL_TIME_OFFSET ( 1, 0, .AHEAD. ) ;
#271 = CIRCLE ( 'NONE', #154, 12.67500000000000071 ) ;
#272 = EDGE_CURVE ( 'NONE', #244, #258, #124, .T. ) ;
#273 =( GEOMETRIC_REPRESENTATION_CONTEXT ( 3 ) GLOBAL_UNCERTAINTY_ASSIGNED_CONTEXT ( ( #191 ) ) GLOBAL_UNIT_ASSIGNED_CONTEXT ( ( #382, #135, #181 ) ) REPRESENTATION_CONTEXT ( 'NONE', 'WORKASPACE' ) );
#274 = DIRECTION ( 'NONE',  ( -0.000000000000000000, -1.000000000000000000, -0.000000000000000000 ) ) ;
#275 = PLANE ( 'NONE',  #54 ) ;
#276 = APPROVAL_ROLE ( '' ) ;
#277 = EDGE_LOOP ( 'NONE', ( #372, #284 ) ) ;
#278 = CLOSED_SHELL ( 'NONE', ( #113, #250, #17, #170, #211, #185, #99, #175, #344, #254, #326, #394 ) ) ;
#279 = EDGE_CURVE ( 'NONE', #280, #385, #84, .T. ) ;
#280 = VERTEX_POINT ( 'NONE', #384 ) ;
#281 = ADVANCED_BREP_SHAPE_REPRESENTATION ( 'flasque', ( #187, #368 ), #273 ) ;
#282 = EDGE_CURVE ( 'NONE', #388, #182, #222, .T. ) ;
#283 = VECTOR ( 'NONE', #65, 1000.000000000000000 ) ;
#284 = ORIENTED_EDGE ( 'NONE', *, *, #229, .F. ) ;
#285 = CARTESIAN_POINT ( 'NONE',  ( 0.000000000000000000, -2.000000000000000000, 0.000000000000000000 ) ) ;
#286 = CC_DESIGN_APPROVAL ( #78, ( #319 ) ) ;
#287 = DIRECTION ( 'NONE',  ( -0.000000000000000000, -1.000000000000000000, -0.000000000000000000 ) ) ;
#288 = DIRECTION ( 'NONE',  ( 0.000000000000000000, 0.000000000000000000, 1.000000000000000000 ) ) ;
#289 = ORIENTED_EDGE ( 'NONE', *, *, #102, .F. ) ;
#290 = DIRECTION ( 'NONE',  ( -0.000000000000000000, 1.000000000000000000, -0.000000000000000000 ) ) ;
#291 = CARTESIAN_POINT ( 'NONE',  ( 0.000000000000000000, 5.700000000000000178, 0.000000000000000000 ) ) ;
#292 = CIRCLE ( 'NONE', #315, 8.000000000000000000 ) ;
#293 = CYLINDRICAL_SURFACE ( 'NONE', #58, 12.67500000000000071 ) ;
#294 = FACE_OUTER_BOUND ( 'NONE', #125, .T. ) ;
#295 = CARTESIAN_POINT ( 'NONE',  ( 1.438959988998140357E-15, 5.700000000000000178, 11.75000000000000178 ) ) ;
#296 = ORIENTED_EDGE ( 'NONE', *, *, #157, .F. ) ;
#297 = DIRECTION ( 'NONE',  ( 0.000000000000000000, 1.000000000000000000, 0.000000000000000000 ) ) ;
#298 = VECTOR ( 'NONE', #172, 1000.000000000000000 ) ;
#299 = ORIENTED_EDGE ( 'NONE', *, *, #207, .F. ) ;
#300 = FACE_OUTER_BOUND ( 'NONE', #194, .T. ) ;
#301 = MECHANICAL_CONTEXT ( 'NONE', #71, 'mechanical' ) ;
#302 = PRODUCT_RELATED_PRODUCT_CATEGORY ( 'detail', '', ( #252 ) ) ;
#303 = EDGE_CURVE ( 'NONE', #182, #388, #122, .T. ) ;
#304 = PERSON_AND_ORGANIZATION ( #339, #248 ) ;
#305 = AXIS2_PLACEMENT_3D ( 'NONE', #29, #161, #406 ) ;
#306 = CALENDAR_DATE ( 2024, 30, 11 ) ;
#307 = DIRECTION ( 'NONE',  ( -0.000000000000000000, -1.000000000000000000, -0.000000000000000000 ) ) ;
#308 = PERSON_AND_ORGANIZATION_ROLE ( 'design_owner' ) ;
#309 = VERTEX_POINT ( 'NONE', #328 ) ;
#310 = CARTESIAN_POINT ( 'NONE',  ( 0.000000000000000000, 0.000000000000000000, -22.64999999999999858 ) ) ;
#311 = CIRCLE ( 'NONE', #134, 8.000000000000000000 ) ;
#312 = ORIENTED_EDGE ( 'NONE', *, *, #179, .F. ) ;
#313 = ORIENTED_EDGE ( 'NONE', *, *, #79, .F. ) ;
#314 = FACE_OUTER_BOUND ( 'NONE', #277, .T. ) ;
#315 = AXIS2_PLACEMENT_3D ( 'NONE', #357, #205, #331 ) ;
#316 = CYLINDRICAL_SURFACE ( 'NONE', #264, 8.000000000000000000 ) ;
#317 = APPLICATION_CONTEXT ( 'configuration controlled 3d designs of mechanical parts and assemblies' ) ;
#318 = DIRECTION ( 'NONE',  ( 0.000000000000000000, 0.000000000000000000, -1.000000000000000000 ) ) ;
#319 = PRODUCT_DEFINITION ( 'UNKNOWN', '', #320, #90 ) ;
#320 = PRODUCT_DEFINITION_FORMATION_WITH_SPECIFIED_SOURCE ( 'ANY', '', #252, .NOT_KNOWN. ) ;
#321 = ORIENTED_EDGE ( 'NONE', *, *, #401, .T. ) ;
#322 = CYLINDRICAL_SURFACE ( 'NONE', #46, 22.64999999999999858 ) ;
#323 = DIRECTION ( 'NONE',  ( 0.000000000000000000, 0.000000000000000000, 1.000000000000000000 ) ) ;
#324 = EDGE_CURVE ( 'NONE', #385, #377, #166, .T. ) ;
#325 = DIRECTION ( 'NONE',  ( 0.000000000000000000, 1.000000000000000000, 0.000000000000000000 ) ) ;
#326 = ADVANCED_FACE ( 'NONE', ( #294 ), #293, .T. ) ;
#327 = CARTESIAN_POINT ( 'NONE',  ( 0.000000000000000000, 0.000000000000000000, 12.67500000000000071 ) ) ;
#328 = CARTESIAN_POINT ( 'NONE',  ( 2.773825000068754813E-15, 4.000000000000000000, 22.64999999999999858 ) ) ;
#329 = CARTESIAN_POINT ( 'NONE',  ( 0.000000000000000000, 4.000000000000000000, 0.000000000000000000 ) ) ;
#330 = VERTEX_POINT ( 'NONE', #202 ) ;
#331 = DIRECTION ( 'NONE',  ( 0.000000000000000000, 0.000000000000000000, -1.000000000000000000 ) ) ;
#332 = AXIS2_PLACEMENT_3D ( 'NONE', #8, #107, #260 ) ;
#333 = EDGE_LOOP ( 'NONE', ( #267, #235, #130, #219 ) ) ;
#334 = PERSON_AND_ORGANIZATION ( #339, #248 ) ;
#335 = CIRCLE ( 'NONE', #88, 12.67500000000000071 ) ;
#336 = DIRECTION ( 'NONE',  ( 0.000000000000000000, 0.000000000000000000, -1.000000000000000000 ) ) ;
#337 = PERSON_AND_ORGANIZATION ( #339, #248 ) ;
#338 = VERTEX_POINT ( 'NONE', #327 ) ;
#339 = PERSON ( 'UNSPECIFIED', 'UNSPECIFIED', 'UNSPECIFIED', ('UNSPECIFIED'), ('UNSPECIFIED'), ('UNSPECIFIED') ) ;
#340 = LOCAL_TIME ( 21, 27, 30.00000000000000000, #44 ) ;
#341 = CARTESIAN_POINT ( 'NONE',  ( 0.000000000000000000, 5.700000000000000178, 0.000000000000000000 ) ) ;
#342 = ORIENTED_EDGE ( 'NONE', *, *, #401, .F. ) ;
#343 = AXIS2_PLACEMENT_3D ( 'NONE', #285, #407, #288 ) ;
#344 = ADVANCED_FACE ( 'NONE', ( #226, #379 ), #265, .T. ) ;
#345 = ORIENTED_EDGE ( 'NONE', *, *, #279, .F. ) ;
#346 = DIRECTION ( 'NONE',  ( -0.000000000000000000, -1.000000000000000000, -0.000000000000000000 ) ) ;
#347 = ORIENTED_EDGE ( 'NONE', *, *, #229, .T. ) ;
#348 = DIRECTION ( 'NONE',  ( 0.000000000000000000, 0.000000000000000000, 1.000000000000000000 ) ) ;
#349 = CARTESIAN_POINT ( 'NONE',  ( 9.797174393178825657E-16, 0.000000000000000000, -8.000000000000000000 ) ) ;
#350 = LOCAL_TIME ( 21, 27, 30.00000000000000000, #270 ) ;
#351 = CARTESIAN_POINT ( 'NONE',  ( 2.773825000068754813E-15, 0.000000000000000000, 22.64999999999999858 ) ) ;
#352 = PLANE ( 'NONE',  #37 ) ;
#353 = DIRECTION ( 'NONE',  ( -0.000000000000000000, -1.000000000000000000, -0.000000000000000000 ) ) ;
#354 = EDGE_CURVE ( 'NONE', #309, #253, #262, .T. ) ;
#355 = DIRECTION ( 'NONE',  ( 0.000000000000000000, 0.000000000000000000, -1.000000000000000000 ) ) ;
#356 = DIRECTION ( 'NONE',  ( 0.000000000000000000, 0.000000000000000000, 1.000000000000000000 ) ) ;
#357 = CARTESIAN_POINT ( 'NONE',  ( 0.000000000000000000, 5.700000000000000178, 0.000000000000000000 ) ) ;
#358 = ORIENTED_EDGE ( 'NONE', *, *, #137, .F. ) ;
#359 = LINE ( 'NONE', #73, #178 ) ;
#360 = AXIS2_PLACEMENT_3D ( 'NONE', #117, #242, #336 ) ;
#361 = APPLICATION_PROTOCOL_DEFINITION ( 'international standard', 'config_control_design', 1994, #317 ) ;
#362 = EDGE_CURVE ( 'NONE', #174, #377, #400, .T. ) ;
#363 = PERSON_AND_ORGANIZATION_ROLE ( 'classification_officer' ) ;
#364 = DIRECTION ( 'NONE',  ( -0.000000000000000000, 1.000000000000000000, -0.000000000000000000 ) ) ;
#365 = ORIENTED_EDGE ( 'NONE', *, *, #324, .T. ) ;
#366 = AXIS2_PLACEMENT_3D ( 'NONE', #261, #104, #355 ) ;
#367 = DIRECTION ( 'NONE',  ( 0.000000000000000000, -0.000000000000000000, 1.000000000000000000 ) ) ;
#368 = AXIS2_PLACEMENT_3D ( 'NONE', #239, #43, #147 ) ;
#369 = EDGE_LOOP ( 'NONE', ( #189, #145, #347, #312 ) ) ;
#370 = EDGE_CURVE ( 'NONE', #258, #244, #311, .T. ) ;
#371 = AXIS2_PLACEMENT_3D ( 'NONE', #36, #132, #201 ) ;
#372 = ORIENTED_EDGE ( 'NONE', *, *, #390, .F. ) ;
#373 = CARTESIAN_POINT ( 'NONE',  ( 0.000000000000000000, 5.700000000000000178, -11.75000000000000178 ) ) ;
#374 = CARTESIAN_POINT ( 'NONE',  ( 0.000000000000000000, 0.000000000000000000, 0.000000000000000000 ) ) ;
#375 = CARTESIAN_POINT ( 'NONE',  ( 0.000000000000000000, 0.000000000000000000, 0.000000000000000000 ) ) ;
#376 = AXIS2_PLACEMENT_3D ( 'NONE', #236, #141, #169 ) ;
#377 = VERTEX_POINT ( 'NONE', #231 ) ;
#378 = DIRECTION ( 'NONE',  ( 0.000000000000000000, 1.000000000000000000, 0.000000000000000000 ) ) ;
#379 = FACE_OUTER_BOUND ( 'NONE', #204, .T. ) ;
#380 = FACE_BOUND ( 'NONE', #10, .T. ) ;
#381 = CARTESIAN_POINT ( 'NONE',  ( 0.000000000000000000, -2.000000000000000000, 0.000000000000000000 ) ) ;
#382 =( LENGTH_UNIT ( ) NAMED_UNIT ( * ) SI_UNIT ( .MILLI., .METRE. ) );
#383 = CIRCLE ( 'NONE', #158, 11.75000000000000178 ) ;
#384 = CARTESIAN_POINT ( 'NONE',  ( 0.000000000000000000, 5.700000000000000178, -11.75000000000000178 ) ) ;
#385 = VERTEX_POINT ( 'NONE', #98 ) ;
#386 = DIRECTION ( 'NONE',  ( 0.000000000000000000, 0.000000000000000000, 1.000000000000000000 ) ) ;
#387 = PERSON_AND_ORGANIZATION ( #339, #248 ) ;
#388 = VERTEX_POINT ( 'NONE', #139 ) ;
#389 = CARTESIAN_POINT ( 'NONE',  ( 0.000000000000000000, -2.000000000000000000, 12.67500000000000071 ) ) ;
#390 = EDGE_CURVE ( 'NONE', #168, #253, #1, .T. ) ;
#391 = APPROVAL_STATUS ( 'not_yet_approved' ) ;
#392 = AXIS2_PLACEMENT_3D ( 'NONE', #341, #51, #198 ) ;
#393 = DATE_AND_TIME ( #176, #340 ) ;
#394 = ADVANCED_FACE ( 'NONE', ( #380, #6 ), #352, .T. ) ;
#395 = FACE_OUTER_BOUND ( 'NONE', #96, .T. ) ;
#396 = PERSON_AND_ORGANIZATION ( #339, #248 ) ;
#397 = ORIENTED_EDGE ( 'NONE', *, *, #370, .F. ) ;
#398 = FACE_OUTER_BOUND ( 'NONE', #42, .T. ) ;
#399 = CALENDAR_DATE ( 2024, 30, 11 ) ;
#400 = CIRCLE ( 'NONE', #332, 11.75000000000000178 ) ;
#401 = EDGE_CURVE ( 'NONE', #330, #309, #126, .T. ) ;
#402 = CC_DESIGN_APPROVAL ( #62, ( #30 ) ) ;
#403 = VERTEX_POINT ( 'NONE', #38 ) ;
#404 = ORIENTED_EDGE ( 'NONE', *, *, #4, .T. ) ;
#405 = LINE ( 'NONE', #373, #75 ) ;
#406 = DIRECTION ( 'NONE',  ( 0.000000000000000000, 0.000000000000000000, 1.000000000000000000 ) ) ;
#407 = DIRECTION ( 'NONE',  ( -0.000000000000000000, 1.000000000000000000, -0.000000000000000000 ) ) ;
#408 = EDGE_LOOP ( 'NONE', ( #155, #171 ) ) ;
#409 = CARTESIAN_POINT ( 'NONE',  ( 0.000000000000000000, 5.700000000000000178, 0.000000000000000000 ) ) ;
ENDSEC;
END-ISO-10303-21;
