ISO-10303-21;
HEADER;
/* Generated by software containing ST-Developer
 * from STEP Tools, Inc. (www.steptools.com) 
 */
/* OPTION: using custom renumber hook */

FILE_DESCRIPTION(
/* description */ ('STEP AP242',
'CAx-IF Rec.Pracs.---Representation and Presentation of Product Manufa
cturing Information (PMI)---4.0---2014-10-13',
'CAx-IF Rec.Pracs.---3D Tessellated Geometry---0.4---2014-09-14','2;1'),

/* implementation_level */ '2;1');

FILE_NAME(
/* name */ '672c75adae80376648703520',
/* time_stamp */ '2024-11-07T08:09:17Z',
/* author */ (''),
/* organization */ (''),
/* preprocessor_version */ 'ST-DEVELOPER v20',
/* originating_system */ 'ONSHAPE BY PTC INC, 1.189',
/* authorisation */ '  ');

FILE_SCHEMA (('AP242_MANAGED_MODEL_BASED_3D_ENGINEERING_MIM_LF { 1 0 10303 442 1 1 4 }'));
ENDSEC;

DATA;
#10=SHAPE_REPRESENTATION_RELATIONSHIP('','',#317,#11);
#11=ADVANCED_BREP_SHAPE_REPRESENTATION('',(#315),#555);
#12=VERTEX_LOOP('',#135);
#13=CONICAL_SURFACE('',#348,0.043,0.785398163397448);
#14=CONICAL_SURFACE('',#357,0.00225,0.785398163397448);
#15=CONICAL_SURFACE('',#358,0.00225,0.785398163397448);
#16=CONICAL_SURFACE('',#359,0.00225,0.785398163397448);
#17=CONICAL_SURFACE('',#360,0.00225,0.785398163397448);
#18=CONICAL_SURFACE('',#361,0.0425,0.785398163397448);
#19=CONICAL_SURFACE('',#366,0.00545,0.785398163397449);
#20=CONICAL_SURFACE('',#367,0.0025,1.02974425867666);
#21=TOROIDAL_SURFACE('',#329,0.0095,0.002);
#22=TOROIDAL_SURFACE('',#347,0.0095,0.002);
#23=PLANE('',#325);
#24=PLANE('',#327);
#25=PLANE('',#333);
#26=PLANE('',#340);
#27=PLANE('',#364);
#28=ORIENTED_EDGE('',*,*,#82,.T.);
#29=ORIENTED_EDGE('',*,*,#83,.T.);
#30=ORIENTED_EDGE('',*,*,#84,.F.);
#31=ORIENTED_EDGE('',*,*,#85,.T.);
#32=ORIENTED_EDGE('',*,*,#86,.T.);
#33=ORIENTED_EDGE('',*,*,#84,.T.);
#34=ORIENTED_EDGE('',*,*,#85,.F.);
#35=ORIENTED_EDGE('',*,*,#87,.F.);
#36=ORIENTED_EDGE('',*,*,#86,.F.);
#37=ORIENTED_EDGE('',*,*,#83,.F.);
#38=ORIENTED_EDGE('',*,*,#88,.T.);
#39=ORIENTED_EDGE('',*,*,#89,.T.);
#40=ORIENTED_EDGE('',*,*,#90,.T.);
#41=ORIENTED_EDGE('',*,*,#91,.T.);
#42=ORIENTED_EDGE('',*,*,#92,.T.);
#43=ORIENTED_EDGE('',*,*,#93,.T.);
#44=ORIENTED_EDGE('',*,*,#94,.T.);
#45=ORIENTED_EDGE('',*,*,#95,.T.);
#46=ORIENTED_EDGE('',*,*,#96,.T.);
#47=ORIENTED_EDGE('',*,*,#97,.T.);
#48=ORIENTED_EDGE('',*,*,#98,.T.);
#49=ORIENTED_EDGE('',*,*,#99,.T.);
#50=ORIENTED_EDGE('',*,*,#100,.T.);
#51=ORIENTED_EDGE('',*,*,#101,.T.);
#52=ORIENTED_EDGE('',*,*,#82,.F.);
#53=ORIENTED_EDGE('',*,*,#95,.F.);
#54=ORIENTED_EDGE('',*,*,#94,.F.);
#55=ORIENTED_EDGE('',*,*,#89,.F.);
#56=ORIENTED_EDGE('',*,*,#102,.T.);
#57=ORIENTED_EDGE('',*,*,#93,.F.);
#58=ORIENTED_EDGE('',*,*,#103,.T.);
#59=ORIENTED_EDGE('',*,*,#92,.F.);
#60=ORIENTED_EDGE('',*,*,#104,.T.);
#61=ORIENTED_EDGE('',*,*,#91,.F.);
#62=ORIENTED_EDGE('',*,*,#105,.T.);
#63=ORIENTED_EDGE('',*,*,#90,.F.);
#64=ORIENTED_EDGE('',*,*,#97,.F.);
#65=ORIENTED_EDGE('',*,*,#102,.F.);
#66=ORIENTED_EDGE('',*,*,#98,.F.);
#67=ORIENTED_EDGE('',*,*,#103,.F.);
#68=ORIENTED_EDGE('',*,*,#99,.F.);
#69=ORIENTED_EDGE('',*,*,#104,.F.);
#70=ORIENTED_EDGE('',*,*,#100,.F.);
#71=ORIENTED_EDGE('',*,*,#105,.F.);
#72=ORIENTED_EDGE('',*,*,#88,.F.);
#73=ORIENTED_EDGE('',*,*,#101,.F.);
#74=ORIENTED_EDGE('',*,*,#106,.T.);
#75=ORIENTED_EDGE('',*,*,#87,.T.);
#76=ORIENTED_EDGE('',*,*,#107,.T.);
#77=ORIENTED_EDGE('',*,*,#106,.F.);
#78=ORIENTED_EDGE('',*,*,#107,.F.);
#79=ORIENTED_EDGE('',*,*,#108,.F.);
#80=ORIENTED_EDGE('',*,*,#108,.T.);
#81=ORIENTED_EDGE('',*,*,#96,.F.);
#82=EDGE_CURVE('',#109,#109,#137,.F.);
#83=EDGE_CURVE('',#110,#110,#138,.T.);
#84=EDGE_CURVE('',#111,#111,#139,.T.);
#85=EDGE_CURVE('',#112,#112,#140,.T.);
#86=EDGE_CURVE('',#113,#113,#141,.F.);
#87=EDGE_CURVE('',#114,#114,#142,.T.);
#88=EDGE_CURVE('',#115,#115,#143,.F.);
#89=EDGE_CURVE('',#116,#116,#144,.T.);
#90=EDGE_CURVE('',#117,#117,#145,.T.);
#91=EDGE_CURVE('',#118,#118,#146,.T.);
#92=EDGE_CURVE('',#119,#119,#147,.T.);
#93=EDGE_CURVE('',#120,#120,#148,.T.);
#94=EDGE_CURVE('',#121,#121,#149,.F.);
#95=EDGE_CURVE('',#122,#122,#150,.T.);
#96=EDGE_CURVE('',#123,#123,#151,.T.);
#97=EDGE_CURVE('',#124,#124,#152,.F.);
#98=EDGE_CURVE('',#125,#125,#153,.F.);
#99=EDGE_CURVE('',#126,#126,#154,.F.);
#100=EDGE_CURVE('',#127,#127,#155,.F.);
#101=EDGE_CURVE('',#128,#128,#156,.T.);
#102=EDGE_CURVE('',#129,#129,#157,.T.);
#103=EDGE_CURVE('',#130,#130,#158,.T.);
#104=EDGE_CURVE('',#131,#131,#159,.T.);
#105=EDGE_CURVE('',#132,#132,#160,.T.);
#106=EDGE_CURVE('',#133,#133,#161,.T.);
#107=EDGE_CURVE('',#134,#134,#162,.F.);
#108=EDGE_CURVE('',#136,#136,#163,.T.);
#109=VERTEX_POINT('',#477);
#110=VERTEX_POINT('',#479);
#111=VERTEX_POINT('',#482);
#112=VERTEX_POINT('',#484);
#113=VERTEX_POINT('',#487);
#114=VERTEX_POINT('',#490);
#115=VERTEX_POINT('',#494);
#116=VERTEX_POINT('',#496);
#117=VERTEX_POINT('',#499);
#118=VERTEX_POINT('',#501);
#119=VERTEX_POINT('',#503);
#120=VERTEX_POINT('',#505);
#121=VERTEX_POINT('',#507);
#122=VERTEX_POINT('',#509);
#123=VERTEX_POINT('',#512);
#124=VERTEX_POINT('',#514);
#125=VERTEX_POINT('',#516);
#126=VERTEX_POINT('',#518);
#127=VERTEX_POINT('',#520);
#128=VERTEX_POINT('',#522);
#129=VERTEX_POINT('',#527);
#130=VERTEX_POINT('',#530);
#131=VERTEX_POINT('',#533);
#132=VERTEX_POINT('',#536);
#133=VERTEX_POINT('',#544);
#134=VERTEX_POINT('',#547);
#135=VERTEX_POINT('',#550);
#136=VERTEX_POINT('',#552);
#137=CIRCLE('',#320,0.0075);
#138=CIRCLE('',#321,0.0075);
#139=CIRCLE('',#323,0.014);
#140=CIRCLE('',#324,0.014);
#141=CIRCLE('',#326,0.0095);
#142=CIRCLE('',#328,0.00595);
#143=CIRCLE('',#331,0.043);
#144=CIRCLE('',#332,0.043);
#145=CIRCLE('',#334,0.00225);
#146=CIRCLE('',#335,0.00225);
#147=CIRCLE('',#336,0.00225);
#148=CIRCLE('',#337,0.00225);
#149=CIRCLE('',#338,0.0425);
#150=CIRCLE('',#339,0.0095);
#151=CIRCLE('',#341,0.0025);
#152=CIRCLE('',#342,0.00275);
#153=CIRCLE('',#343,0.00275);
#154=CIRCLE('',#344,0.00275);
#155=CIRCLE('',#345,0.00275);
#156=CIRCLE('',#346,0.0425);
#157=CIRCLE('',#350,0.00225);
#158=CIRCLE('',#352,0.00225);
#159=CIRCLE('',#354,0.00225);
#160=CIRCLE('',#356,0.00225);
#161=CIRCLE('',#363,0.00595);
#162=CIRCLE('',#365,0.00545);
#163=CIRCLE('',#368,0.0025);
#164=EDGE_LOOP('',(#28));
#165=EDGE_LOOP('',(#29));
#166=EDGE_LOOP('',(#30));
#167=EDGE_LOOP('',(#31));
#168=EDGE_LOOP('',(#32));
#169=EDGE_LOOP('',(#33));
#170=EDGE_LOOP('',(#34));
#171=EDGE_LOOP('',(#35));
#172=EDGE_LOOP('',(#36));
#173=EDGE_LOOP('',(#37));
#174=EDGE_LOOP('',(#38));
#175=EDGE_LOOP('',(#39));
#176=EDGE_LOOP('',(#40));
#177=EDGE_LOOP('',(#41));
#178=EDGE_LOOP('',(#42));
#179=EDGE_LOOP('',(#43));
#180=EDGE_LOOP('',(#44));
#181=EDGE_LOOP('',(#45));
#182=EDGE_LOOP('',(#46));
#183=EDGE_LOOP('',(#47));
#184=EDGE_LOOP('',(#48));
#185=EDGE_LOOP('',(#49));
#186=EDGE_LOOP('',(#50));
#187=EDGE_LOOP('',(#51));
#188=EDGE_LOOP('',(#52));
#189=EDGE_LOOP('',(#53));
#190=EDGE_LOOP('',(#54));
#191=EDGE_LOOP('',(#55));
#192=EDGE_LOOP('',(#56));
#193=EDGE_LOOP('',(#57));
#194=EDGE_LOOP('',(#58));
#195=EDGE_LOOP('',(#59));
#196=EDGE_LOOP('',(#60));
#197=EDGE_LOOP('',(#61));
#198=EDGE_LOOP('',(#62));
#199=EDGE_LOOP('',(#63));
#200=EDGE_LOOP('',(#64));
#201=EDGE_LOOP('',(#65));
#202=EDGE_LOOP('',(#66));
#203=EDGE_LOOP('',(#67));
#204=EDGE_LOOP('',(#68));
#205=EDGE_LOOP('',(#69));
#206=EDGE_LOOP('',(#70));
#207=EDGE_LOOP('',(#71));
#208=EDGE_LOOP('',(#72));
#209=EDGE_LOOP('',(#73));
#210=EDGE_LOOP('',(#74));
#211=EDGE_LOOP('',(#75));
#212=EDGE_LOOP('',(#76));
#213=EDGE_LOOP('',(#77));
#214=EDGE_LOOP('',(#78));
#215=EDGE_LOOP('',(#79));
#216=EDGE_LOOP('',(#80));
#217=EDGE_LOOP('',(#81));
#218=FACE_BOUND('',#164,.T.);
#219=FACE_BOUND('',#165,.T.);
#220=FACE_BOUND('',#166,.T.);
#221=FACE_BOUND('',#167,.T.);
#222=FACE_BOUND('',#168,.T.);
#223=FACE_BOUND('',#169,.T.);
#224=FACE_BOUND('',#170,.T.);
#225=FACE_BOUND('',#171,.T.);
#226=FACE_BOUND('',#172,.T.);
#227=FACE_BOUND('',#173,.T.);
#228=FACE_BOUND('',#174,.T.);
#229=FACE_BOUND('',#175,.T.);
#230=FACE_BOUND('',#176,.T.);
#231=FACE_BOUND('',#177,.T.);
#232=FACE_BOUND('',#178,.T.);
#233=FACE_BOUND('',#179,.T.);
#234=FACE_BOUND('',#180,.T.);
#235=FACE_BOUND('',#181,.T.);
#236=FACE_BOUND('',#182,.T.);
#237=FACE_BOUND('',#183,.T.);
#238=FACE_BOUND('',#184,.T.);
#239=FACE_BOUND('',#185,.T.);
#240=FACE_BOUND('',#186,.T.);
#241=FACE_BOUND('',#187,.T.);
#242=FACE_BOUND('',#188,.T.);
#243=FACE_BOUND('',#189,.T.);
#244=FACE_BOUND('',#190,.T.);
#245=FACE_BOUND('',#191,.T.);
#246=FACE_BOUND('',#192,.T.);
#247=FACE_BOUND('',#193,.T.);
#248=FACE_BOUND('',#194,.T.);
#249=FACE_BOUND('',#195,.T.);
#250=FACE_BOUND('',#196,.T.);
#251=FACE_BOUND('',#197,.T.);
#252=FACE_BOUND('',#198,.T.);
#253=FACE_BOUND('',#199,.T.);
#254=FACE_BOUND('',#200,.T.);
#255=FACE_BOUND('',#201,.T.);
#256=FACE_BOUND('',#202,.T.);
#257=FACE_BOUND('',#203,.T.);
#258=FACE_BOUND('',#204,.T.);
#259=FACE_BOUND('',#205,.T.);
#260=FACE_BOUND('',#206,.T.);
#261=FACE_BOUND('',#207,.T.);
#262=FACE_BOUND('',#208,.T.);
#263=FACE_BOUND('',#209,.T.);
#264=FACE_BOUND('',#210,.T.);
#265=FACE_BOUND('',#211,.T.);
#266=FACE_BOUND('',#212,.T.);
#267=FACE_BOUND('',#213,.T.);
#268=FACE_BOUND('',#214,.T.);
#269=FACE_BOUND('',#12,.T.);
#270=FACE_BOUND('',#215,.T.);
#271=FACE_BOUND('',#216,.T.);
#272=FACE_BOUND('',#217,.T.);
#273=CYLINDRICAL_SURFACE('',#319,0.0075);
#274=CYLINDRICAL_SURFACE('',#322,0.014);
#275=CYLINDRICAL_SURFACE('',#330,0.043);
#276=CYLINDRICAL_SURFACE('',#349,0.00225);
#277=CYLINDRICAL_SURFACE('',#351,0.00225);
#278=CYLINDRICAL_SURFACE('',#353,0.00225);
#279=CYLINDRICAL_SURFACE('',#355,0.00225);
#280=CYLINDRICAL_SURFACE('',#362,0.00595);
#281=CYLINDRICAL_SURFACE('',#369,0.0025);
#282=ADVANCED_FACE('',(#218,#219),#273,.T.);
#283=ADVANCED_FACE('',(#220,#221),#274,.T.);
#284=ADVANCED_FACE('',(#222,#223),#23,.T.);
#285=ADVANCED_FACE('',(#224,#225),#24,.F.);
#286=ADVANCED_FACE('',(#226,#227),#21,.F.);
#287=ADVANCED_FACE('',(#228,#229),#275,.T.);
#288=ADVANCED_FACE('',(#230,#231,#232,#233,#234,#235),#25,.F.);
#289=ADVANCED_FACE('',(#236,#237,#238,#239,#240,#241),#26,.T.);
#290=ADVANCED_FACE('',(#242,#243),#22,.F.);
#291=ADVANCED_FACE('',(#244,#245),#13,.T.);
#292=ADVANCED_FACE('',(#246,#247),#276,.F.);
#293=ADVANCED_FACE('',(#248,#249),#277,.F.);
#294=ADVANCED_FACE('',(#250,#251),#278,.F.);
#295=ADVANCED_FACE('',(#252,#253),#279,.F.);
#296=ADVANCED_FACE('',(#254,#255),#14,.F.);
#297=ADVANCED_FACE('',(#256,#257),#15,.F.);
#298=ADVANCED_FACE('',(#258,#259),#16,.F.);
#299=ADVANCED_FACE('',(#260,#261),#17,.F.);
#300=ADVANCED_FACE('',(#262,#263),#18,.T.);
#301=ADVANCED_FACE('',(#264,#265),#280,.T.);
#302=ADVANCED_FACE('',(#266),#27,.F.);
#303=ADVANCED_FACE('',(#267,#268),#19,.T.);
#304=ADVANCED_FACE('',(#269,#270),#20,.F.);
#305=ADVANCED_FACE('',(#271,#272),#281,.F.);
#306=CLOSED_SHELL('',(#282,#283,#284,#285,#286,#287,#288,#289,#290,#291,
#292,#293,#294,#295,#296,#297,#298,#299,#300,#301,#302,#303,#304,#305));
#307=STYLED_ITEM('',(#308),#315);
#308=PRESENTATION_STYLE_ASSIGNMENT((#309));
#309=SURFACE_STYLE_USAGE(.BOTH.,#310);
#310=SURFACE_SIDE_STYLE('',(#311));
#311=SURFACE_STYLE_FILL_AREA(#312);
#312=FILL_AREA_STYLE('',(#313));
#313=FILL_AREA_STYLE_COLOUR('',#314);
#314=COLOUR_RGB('',0.43921568627451,0.474509803921569,0.501960784313726);
#315=MANIFOLD_SOLID_BREP('Part 1',#306);
#316=SHAPE_DEFINITION_REPRESENTATION(#560,#317);
#317=SHAPE_REPRESENTATION('Part 1',(#318),#555);
#318=AXIS2_PLACEMENT_3D('',#474,#370,#371);
#319=AXIS2_PLACEMENT_3D('',#475,#372,#373);
#320=AXIS2_PLACEMENT_3D('',#476,#374,#375);
#321=AXIS2_PLACEMENT_3D('',#478,#376,#377);
#322=AXIS2_PLACEMENT_3D('',#480,#378,#379);
#323=AXIS2_PLACEMENT_3D('',#481,#380,#381);
#324=AXIS2_PLACEMENT_3D('',#483,#382,#383);
#325=AXIS2_PLACEMENT_3D('',#485,#384,#385);
#326=AXIS2_PLACEMENT_3D('',#486,#386,#387);
#327=AXIS2_PLACEMENT_3D('',#488,#388,#389);
#328=AXIS2_PLACEMENT_3D('',#489,#390,#391);
#329=AXIS2_PLACEMENT_3D('',#491,#392,#393);
#330=AXIS2_PLACEMENT_3D('',#492,#394,#395);
#331=AXIS2_PLACEMENT_3D('',#493,#396,#397);
#332=AXIS2_PLACEMENT_3D('',#495,#398,#399);
#333=AXIS2_PLACEMENT_3D('',#497,#400,#401);
#334=AXIS2_PLACEMENT_3D('',#498,#402,#403);
#335=AXIS2_PLACEMENT_3D('',#500,#404,#405);
#336=AXIS2_PLACEMENT_3D('',#502,#406,#407);
#337=AXIS2_PLACEMENT_3D('',#504,#408,#409);
#338=AXIS2_PLACEMENT_3D('',#506,#410,#411);
#339=AXIS2_PLACEMENT_3D('',#508,#412,#413);
#340=AXIS2_PLACEMENT_3D('',#510,#414,#415);
#341=AXIS2_PLACEMENT_3D('',#511,#416,#417);
#342=AXIS2_PLACEMENT_3D('',#513,#418,#419);
#343=AXIS2_PLACEMENT_3D('',#515,#420,#421);
#344=AXIS2_PLACEMENT_3D('',#517,#422,#423);
#345=AXIS2_PLACEMENT_3D('',#519,#424,#425);
#346=AXIS2_PLACEMENT_3D('',#521,#426,#427);
#347=AXIS2_PLACEMENT_3D('',#523,#428,#429);
#348=AXIS2_PLACEMENT_3D('',#524,#430,#431);
#349=AXIS2_PLACEMENT_3D('',#525,#432,#433);
#350=AXIS2_PLACEMENT_3D('',#526,#434,#435);
#351=AXIS2_PLACEMENT_3D('',#528,#436,#437);
#352=AXIS2_PLACEMENT_3D('',#529,#438,#439);
#353=AXIS2_PLACEMENT_3D('',#531,#440,#441);
#354=AXIS2_PLACEMENT_3D('',#532,#442,#443);
#355=AXIS2_PLACEMENT_3D('',#534,#444,#445);
#356=AXIS2_PLACEMENT_3D('',#535,#446,#447);
#357=AXIS2_PLACEMENT_3D('',#537,#448,#449);
#358=AXIS2_PLACEMENT_3D('',#538,#450,#451);
#359=AXIS2_PLACEMENT_3D('',#539,#452,#453);
#360=AXIS2_PLACEMENT_3D('',#540,#454,#455);
#361=AXIS2_PLACEMENT_3D('',#541,#456,#457);
#362=AXIS2_PLACEMENT_3D('',#542,#458,#459);
#363=AXIS2_PLACEMENT_3D('',#543,#460,#461);
#364=AXIS2_PLACEMENT_3D('',#545,#462,#463);
#365=AXIS2_PLACEMENT_3D('',#546,#464,#465);
#366=AXIS2_PLACEMENT_3D('',#548,#466,#467);
#367=AXIS2_PLACEMENT_3D('',#549,#468,#469);
#368=AXIS2_PLACEMENT_3D('',#551,#470,#471);
#369=AXIS2_PLACEMENT_3D('',#553,#472,#473);
#370=DIRECTION('',(0.,0.,1.));
#371=DIRECTION('',(1.,0.,0.));
#372=DIRECTION('',(0.,0.,-1.));
#373=DIRECTION('',(-1.,0.,0.));
#374=DIRECTION('',(0.,0.,1.));
#375=DIRECTION('',(1.,0.,0.));
#376=DIRECTION('',(0.,0.,1.));
#377=DIRECTION('',(1.,0.,0.));
#378=DIRECTION('',(0.,0.,-1.));
#379=DIRECTION('',(-1.,0.,0.));
#380=DIRECTION('',(0.,0.,1.));
#381=DIRECTION('',(1.,0.,0.));
#382=DIRECTION('',(0.,0.,1.));
#383=DIRECTION('',(1.,0.,0.));
#384=DIRECTION('',(0.,0.,1.));
#385=DIRECTION('',(1.,0.,0.));
#386=DIRECTION('',(0.,0.,1.));
#387=DIRECTION('',(1.,0.,0.));
#388=DIRECTION('',(0.,0.,1.));
#389=DIRECTION('',(1.,0.,0.));
#390=DIRECTION('',(0.,0.,-1.));
#391=DIRECTION('',(-1.,0.,0.));
#392=DIRECTION('',(0.,0.,1.));
#393=DIRECTION('',(1.,0.,0.));
#394=DIRECTION('',(0.,0.,1.));
#395=DIRECTION('',(1.,0.,0.));
#396=DIRECTION('',(0.,0.,1.));
#397=DIRECTION('',(1.,0.,0.));
#398=DIRECTION('',(0.,0.,1.));
#399=DIRECTION('',(1.,0.,0.));
#400=DIRECTION('',(0.,0.,1.));
#401=DIRECTION('',(1.,0.,0.));
#402=DIRECTION('',(0.,0.,1.));
#403=DIRECTION('',(1.,0.,0.));
#404=DIRECTION('',(0.,0.,1.));
#405=DIRECTION('',(1.,0.,0.));
#406=DIRECTION('',(0.,0.,1.));
#407=DIRECTION('',(1.,0.,0.));
#408=DIRECTION('',(0.,0.,1.));
#409=DIRECTION('',(1.,0.,0.));
#410=DIRECTION('',(0.,0.,1.));
#411=DIRECTION('',(1.,0.,0.));
#412=DIRECTION('',(0.,0.,1.));
#413=DIRECTION('',(1.,0.,0.));
#414=DIRECTION('',(0.,0.,1.));
#415=DIRECTION('',(1.,0.,0.));
#416=DIRECTION('',(0.,0.,-1.));
#417=DIRECTION('',(-1.,0.,0.));
#418=DIRECTION('',(0.,0.,1.));
#419=DIRECTION('',(1.,0.,0.));
#420=DIRECTION('',(0.,0.,1.));
#421=DIRECTION('',(1.,0.,0.));
#422=DIRECTION('',(0.,0.,1.));
#423=DIRECTION('',(1.,0.,0.));
#424=DIRECTION('',(0.,0.,1.));
#425=DIRECTION('',(1.,0.,0.));
#426=DIRECTION('',(0.,0.,1.));
#427=DIRECTION('',(1.,0.,0.));
#428=DIRECTION('',(0.,0.,1.));
#429=DIRECTION('',(1.,0.,0.));
#430=DIRECTION('',(0.,0.,1.));
#431=DIRECTION('',(1.,0.,0.));
#432=DIRECTION('',(0.,0.,1.));
#433=DIRECTION('',(1.,0.,0.));
#434=DIRECTION('',(0.,0.,1.));
#435=DIRECTION('',(1.,0.,0.));
#436=DIRECTION('',(0.,0.,1.));
#437=DIRECTION('',(1.,0.,0.));
#438=DIRECTION('',(0.,0.,1.));
#439=DIRECTION('',(1.,0.,0.));
#440=DIRECTION('',(0.,0.,1.));
#441=DIRECTION('',(1.,0.,0.));
#442=DIRECTION('',(0.,0.,1.));
#443=DIRECTION('',(1.,0.,0.));
#444=DIRECTION('',(0.,0.,1.));
#445=DIRECTION('',(1.,0.,0.));
#446=DIRECTION('',(0.,0.,1.));
#447=DIRECTION('',(1.,0.,0.));
#448=DIRECTION('',(0.,0.,1.));
#449=DIRECTION('',(1.,0.,0.));
#450=DIRECTION('',(0.,0.,1.));
#451=DIRECTION('',(1.,0.,0.));
#452=DIRECTION('',(0.,0.,1.));
#453=DIRECTION('',(1.,0.,0.));
#454=DIRECTION('',(0.,0.,1.));
#455=DIRECTION('',(1.,0.,0.));
#456=DIRECTION('',(0.,0.,-1.));
#457=DIRECTION('',(-1.,0.,0.));
#458=DIRECTION('',(0.,0.,-1.));
#459=DIRECTION('',(-1.,0.,0.));
#460=DIRECTION('',(0.,0.,1.));
#461=DIRECTION('',(1.,0.,0.));
#462=DIRECTION('',(0.,0.,1.));
#463=DIRECTION('',(1.,0.,0.));
#464=DIRECTION('',(0.,0.,1.));
#465=DIRECTION('',(1.,0.,0.));
#466=DIRECTION('',(0.,0.,1.));
#467=DIRECTION('',(1.,0.,0.));
#468=DIRECTION('',(0.,0.,1.));
#469=DIRECTION('',(1.,0.,0.));
#470=DIRECTION('',(0.,0.,-1.));
#471=DIRECTION('',(-1.,0.,0.));
#472=DIRECTION('',(0.,0.,-1.));
#473=DIRECTION('',(-1.,0.,0.));
#474=CARTESIAN_POINT('',(0.,0.,0.));
#475=CARTESIAN_POINT('',(0.,4.59242549680257E-19,0.175));
#476=CARTESIAN_POINT('',(0.,4.59242549680257E-19,0.167));
#477=CARTESIAN_POINT('',(0.0075,4.59242549680257E-19,0.167));
#478=CARTESIAN_POINT('',(0.,4.59242549680257E-19,0.0085));
#479=CARTESIAN_POINT('',(0.0075,4.59242549680257E-19,0.0085));
#480=CARTESIAN_POINT('',(0.,8.57252759403147E-19,0.0065));
#481=CARTESIAN_POINT('',(0.,8.57252759403147E-19,0.0065));
#482=CARTESIAN_POINT('',(0.014,8.57252759403147E-19,0.0065));
#483=CARTESIAN_POINT('',(0.,8.57252759403147E-19,0.0025));
#484=CARTESIAN_POINT('',(0.014,8.57252759403147E-19,0.0025));
#485=CARTESIAN_POINT('',(0.,0.,0.0065));
#486=CARTESIAN_POINT('',(0.,4.59242549680257E-19,0.0065));
#487=CARTESIAN_POINT('',(0.0095,4.59242549680257E-19,0.0065));
#488=CARTESIAN_POINT('',(0.,0.,0.0025));
#489=CARTESIAN_POINT('',(0.,-3.64332422746337E-19,0.0025));
#490=CARTESIAN_POINT('',(-0.00595,-3.64332422746337E-19,0.0025));
#491=CARTESIAN_POINT('',(0.,4.59242549680257E-19,0.0085));
#492=CARTESIAN_POINT('',(0.,2.63299061816681E-18,0.169));
#493=CARTESIAN_POINT('',(0.,2.63299061816681E-18,0.1745));
#494=CARTESIAN_POINT('',(0.043,2.63299061816681E-18,0.1745));
#495=CARTESIAN_POINT('',(0.,2.63299061816681E-18,0.1695));
#496=CARTESIAN_POINT('',(0.043,2.63299061816681E-18,0.1695));
#497=CARTESIAN_POINT('',(0.,0.,0.169));
#498=CARTESIAN_POINT('',(0.,0.0385,0.169));
#499=CARTESIAN_POINT('',(0.00225,0.0385,0.169));
#500=CARTESIAN_POINT('',(0.0385,1.37772764904077E-19,0.169));
#501=CARTESIAN_POINT('',(0.04075,1.37772764904077E-19,0.169));
#502=CARTESIAN_POINT('',(0.,-0.0385,0.169));
#503=CARTESIAN_POINT('',(0.00225,-0.0385,0.169));
#504=CARTESIAN_POINT('',(-0.0385,1.37772764904077E-19,0.169));
#505=CARTESIAN_POINT('',(-0.03625,1.37772764904077E-19,0.169));
#506=CARTESIAN_POINT('',(0.,2.63299061816681E-18,0.169));
#507=CARTESIAN_POINT('',(0.0425,2.63299061816681E-18,0.169));
#508=CARTESIAN_POINT('',(0.,4.59242549680257E-19,0.169));
#509=CARTESIAN_POINT('',(0.0095,4.59242549680257E-19,0.169));
#510=CARTESIAN_POINT('',(0.,0.,0.175));
#511=CARTESIAN_POINT('',(0.,0.,0.175));
#512=CARTESIAN_POINT('',(-0.0025,0.,0.175));
#513=CARTESIAN_POINT('',(-0.0385,1.37772764904077E-19,0.175));
#514=CARTESIAN_POINT('',(-0.03575,1.37772764904077E-19,0.175));
#515=CARTESIAN_POINT('',(0.,-0.0385,0.175));
#516=CARTESIAN_POINT('',(0.00275,-0.0385,0.175));
#517=CARTESIAN_POINT('',(0.0385,1.37772764904077E-19,0.175));
#518=CARTESIAN_POINT('',(0.04125,1.37772764904077E-19,0.175));
#519=CARTESIAN_POINT('',(0.,0.0385,0.175));
#520=CARTESIAN_POINT('',(0.00275,0.0385,0.175));
#521=CARTESIAN_POINT('',(0.,2.63299061816681E-18,0.175));
#522=CARTESIAN_POINT('',(0.0425,2.63299061816681E-18,0.175));
#523=CARTESIAN_POINT('',(0.,4.59242549680257E-19,0.167));
#524=CARTESIAN_POINT('',(0.,2.63299061816681E-18,0.1695));
#525=CARTESIAN_POINT('',(-0.0385,1.37772764904077E-19,0.15));
#526=CARTESIAN_POINT('',(-0.0385,1.37772764904077E-19,0.1745));
#527=CARTESIAN_POINT('',(-0.03625,1.37772764904077E-19,0.1745));
#528=CARTESIAN_POINT('',(0.,-0.0385,0.15));
#529=CARTESIAN_POINT('',(0.,-0.0385,0.1745));
#530=CARTESIAN_POINT('',(0.00225,-0.0385,0.1745));
#531=CARTESIAN_POINT('',(0.0385,1.37772764904077E-19,0.15));
#532=CARTESIAN_POINT('',(0.0385,1.37772764904077E-19,0.1745));
#533=CARTESIAN_POINT('',(0.04075,1.37772764904077E-19,0.1745));
#534=CARTESIAN_POINT('',(0.,0.0385,0.15));
#535=CARTESIAN_POINT('',(0.,0.0385,0.1745));
#536=CARTESIAN_POINT('',(0.00225,0.0385,0.1745));
#537=CARTESIAN_POINT('',(-0.0385,1.37772764904077E-19,0.1745));
#538=CARTESIAN_POINT('',(0.,-0.0385,0.1745));
#539=CARTESIAN_POINT('',(0.0385,1.37772764904077E-19,0.1745));
#540=CARTESIAN_POINT('',(0.,0.0385,0.1745));
#541=CARTESIAN_POINT('',(0.,2.63299061816681E-18,0.175));
#542=CARTESIAN_POINT('',(0.,-3.64332422746337E-19,0.0025));
#543=CARTESIAN_POINT('',(0.,-3.64332422746337E-19,0.0005));
#544=CARTESIAN_POINT('',(0.00595,-3.64332422746337E-19,0.0005));
#545=CARTESIAN_POINT('',(0.,0.,0.));
#546=CARTESIAN_POINT('',(0.,-3.64332422746337E-19,0.));
#547=CARTESIAN_POINT('',(0.00545,-3.64332422746337E-19,0.));
#548=CARTESIAN_POINT('',(0.,-3.64332422746337E-19,0.));
#549=CARTESIAN_POINT('',(0.,0.,0.16));
#550=CARTESIAN_POINT('',(0.,0.,0.158497848452431));
#551=CARTESIAN_POINT('',(0.,0.,0.16));
#552=CARTESIAN_POINT('',(-0.0025,0.,0.16));
#553=CARTESIAN_POINT('',(0.,0.,0.175));
#554=MECHANICAL_DESIGN_GEOMETRIC_PRESENTATION_REPRESENTATION('',(#307),
#555);
#555=(
GEOMETRIC_REPRESENTATION_CONTEXT(3)
GLOBAL_UNCERTAINTY_ASSIGNED_CONTEXT((#556))
GLOBAL_UNIT_ASSIGNED_CONTEXT((#559,#558,#557))
REPRESENTATION_CONTEXT('Part 1','TOP_LEVEL_ASSEMBLY_PART')
);
#556=UNCERTAINTY_MEASURE_WITH_UNIT(LENGTH_MEASURE(5.E-6),#559,
'DISTANCE_ACCURACY_VALUE','Maximum Tolerance applied to model');
#557=(
NAMED_UNIT(*)
SI_UNIT($,.STERADIAN.)
SOLID_ANGLE_UNIT()
);
#558=(
NAMED_UNIT(*)
PLANE_ANGLE_UNIT()
SI_UNIT($,.RADIAN.)
);
#559=(
LENGTH_UNIT()
NAMED_UNIT(*)
SI_UNIT($,.METRE.)
);
#560=PRODUCT_DEFINITION_SHAPE('','',#561);
#561=PRODUCT_DEFINITION('','',#563,#562);
#562=PRODUCT_DEFINITION_CONTEXT('',#569,'design');
#563=PRODUCT_DEFINITION_FORMATION_WITH_SPECIFIED_SOURCE('','',#565,
 .NOT_KNOWN.);
#564=PRODUCT_RELATED_PRODUCT_CATEGORY('','',(#565));
#565=PRODUCT('Part 1','Part 1','Part 1',(#567));
#566=PRODUCT_CATEGORY('','');
#567=PRODUCT_CONTEXT('',#569,'mechanical');
#568=APPLICATION_PROTOCOL_DEFINITION('international standard',
'ap242_managed_model_based_3d_engineering',2011,#569);
#569=APPLICATION_CONTEXT('managed model based 3d engineering');
ENDSEC;
END-ISO-10303-21;
