ISO-10303-21;
HEADER;
/* Generated by software containing ST-Developer
 * from STEP Tools, Inc. (www.steptools.com) 
 */
/* OPTION: using custom renumber hook */

FILE_DESCRIPTION(
/* description */ ('STEP AP242',
'CAx-IF Rec.Pracs.---Representation and Presentation of Product Manufa
cturing Information (PMI)---4.0---2014-10-13',
'CAx-IF Rec.Pracs.---3D Tessellated Geometry---0.4---2014-09-14','2;1'),

/* implementation_level */ '2;1');

FILE_NAME(
/* name */ '670e332b8d90d70d224f1540',
/* time_stamp */ '2024-10-15T09:17:31Z',
/* author */ (''),
/* organization */ (''),
/* preprocessor_version */ 'ST-DEVELOPER v20',
/* originating_system */ '  ',
/* authorisation */ '  ');

FILE_SCHEMA (('AP242_MANAGED_MODEL_BASED_3D_ENGINEERING_MIM_LF { 1 0 10303 442 1 1 4 }'));
ENDSEC;

DATA;
#10=SHAPE_REPRESENTATION_RELATIONSHIP('','',#248,#11);
#11=ADVANCED_BREP_SHAPE_REPRESENTATION('',(#246),#431);
#12=CONICAL_SURFACE('',#277,0.043,0.785398163397448);
#13=CONICAL_SURFACE('',#283,0.00225,0.785398163397448);
#14=CONICAL_SURFACE('',#288,0.00545,0.785398163397449);
#15=TOROIDAL_SURFACE('',#260,0.012,0.002);
#16=TOROIDAL_SURFACE('',#276,0.012,0.002);
#17=PLANE('',#256);
#18=PLANE('',#258);
#19=PLANE('',#264);
#20=PLANE('',#271);
#21=PLANE('',#286);
#22=ORIENTED_EDGE('',*,*,#64,.T.);
#23=ORIENTED_EDGE('',*,*,#65,.T.);
#24=ORIENTED_EDGE('',*,*,#66,.F.);
#25=ORIENTED_EDGE('',*,*,#67,.T.);
#26=ORIENTED_EDGE('',*,*,#68,.T.);
#27=ORIENTED_EDGE('',*,*,#66,.T.);
#28=ORIENTED_EDGE('',*,*,#67,.F.);
#29=ORIENTED_EDGE('',*,*,#69,.F.);
#30=ORIENTED_EDGE('',*,*,#68,.F.);
#31=ORIENTED_EDGE('',*,*,#65,.F.);
#32=ORIENTED_EDGE('',*,*,#70,.T.);
#33=ORIENTED_EDGE('',*,*,#71,.F.);
#34=ORIENTED_EDGE('',*,*,#72,.T.);
#35=ORIENTED_EDGE('',*,*,#73,.T.);
#36=ORIENTED_EDGE('',*,*,#74,.T.);
#37=ORIENTED_EDGE('',*,*,#75,.T.);
#38=ORIENTED_EDGE('',*,*,#76,.T.);
#39=ORIENTED_EDGE('',*,*,#77,.T.);
#40=ORIENTED_EDGE('',*,*,#78,.T.);
#41=ORIENTED_EDGE('',*,*,#79,.F.);
#42=ORIENTED_EDGE('',*,*,#80,.F.);
#43=ORIENTED_EDGE('',*,*,#81,.F.);
#44=ORIENTED_EDGE('',*,*,#71,.T.);
#45=ORIENTED_EDGE('',*,*,#64,.F.);
#46=ORIENTED_EDGE('',*,*,#77,.F.);
#47=ORIENTED_EDGE('',*,*,#76,.F.);
#48=ORIENTED_EDGE('',*,*,#70,.F.);
#49=ORIENTED_EDGE('',*,*,#81,.T.);
#50=ORIENTED_EDGE('',*,*,#75,.F.);
#51=ORIENTED_EDGE('',*,*,#80,.T.);
#52=ORIENTED_EDGE('',*,*,#74,.F.);
#53=ORIENTED_EDGE('',*,*,#79,.T.);
#54=ORIENTED_EDGE('',*,*,#73,.F.);
#55=ORIENTED_EDGE('',*,*,#82,.T.);
#56=ORIENTED_EDGE('',*,*,#72,.F.);
#57=ORIENTED_EDGE('',*,*,#78,.F.);
#58=ORIENTED_EDGE('',*,*,#82,.F.);
#59=ORIENTED_EDGE('',*,*,#83,.T.);
#60=ORIENTED_EDGE('',*,*,#69,.T.);
#61=ORIENTED_EDGE('',*,*,#84,.T.);
#62=ORIENTED_EDGE('',*,*,#83,.F.);
#63=ORIENTED_EDGE('',*,*,#84,.F.);
#64=EDGE_CURVE('',#85,#85,#106,.F.);
#65=EDGE_CURVE('',#86,#86,#107,.T.);
#66=EDGE_CURVE('',#87,#87,#108,.T.);
#67=EDGE_CURVE('',#88,#88,#109,.T.);
#68=EDGE_CURVE('',#89,#89,#110,.F.);
#69=EDGE_CURVE('',#90,#90,#111,.T.);
#70=EDGE_CURVE('',#91,#91,#112,.T.);
#71=EDGE_CURVE('',#92,#92,#113,.T.);
#72=EDGE_CURVE('',#93,#93,#114,.T.);
#73=EDGE_CURVE('',#94,#94,#115,.T.);
#74=EDGE_CURVE('',#95,#95,#116,.T.);
#75=EDGE_CURVE('',#96,#96,#117,.T.);
#76=EDGE_CURVE('',#97,#97,#118,.F.);
#77=EDGE_CURVE('',#98,#98,#119,.T.);
#78=EDGE_CURVE('',#99,#99,#120,.F.);
#79=EDGE_CURVE('',#100,#100,#121,.T.);
#80=EDGE_CURVE('',#101,#101,#122,.T.);
#81=EDGE_CURVE('',#102,#102,#123,.T.);
#82=EDGE_CURVE('',#103,#103,#124,.T.);
#83=EDGE_CURVE('',#104,#104,#125,.T.);
#84=EDGE_CURVE('',#105,#105,#126,.F.);
#85=VERTEX_POINT('',#372);
#86=VERTEX_POINT('',#374);
#87=VERTEX_POINT('',#377);
#88=VERTEX_POINT('',#379);
#89=VERTEX_POINT('',#382);
#90=VERTEX_POINT('',#385);
#91=VERTEX_POINT('',#389);
#92=VERTEX_POINT('',#391);
#93=VERTEX_POINT('',#394);
#94=VERTEX_POINT('',#396);
#95=VERTEX_POINT('',#398);
#96=VERTEX_POINT('',#400);
#97=VERTEX_POINT('',#402);
#98=VERTEX_POINT('',#404);
#99=VERTEX_POINT('',#407);
#100=VERTEX_POINT('',#409);
#101=VERTEX_POINT('',#411);
#102=VERTEX_POINT('',#413);
#103=VERTEX_POINT('',#421);
#104=VERTEX_POINT('',#425);
#105=VERTEX_POINT('',#428);
#106=CIRCLE('',#251,0.01);
#107=CIRCLE('',#252,0.01);
#108=CIRCLE('',#254,0.014);
#109=CIRCLE('',#255,0.014);
#110=CIRCLE('',#257,0.012);
#111=CIRCLE('',#259,0.00595);
#112=CIRCLE('',#262,0.043);
#113=CIRCLE('',#263,0.043);
#114=CIRCLE('',#265,0.00225);
#115=CIRCLE('',#266,0.00225);
#116=CIRCLE('',#267,0.00225);
#117=CIRCLE('',#268,0.00225);
#118=CIRCLE('',#269,0.0425);
#119=CIRCLE('',#270,0.012);
#120=CIRCLE('',#272,0.00275);
#121=CIRCLE('',#273,0.00225);
#122=CIRCLE('',#274,0.00225);
#123=CIRCLE('',#275,0.00225);
#124=CIRCLE('',#282,0.00225);
#125=CIRCLE('',#285,0.00595);
#126=CIRCLE('',#287,0.00545);
#127=EDGE_LOOP('',(#22));
#128=EDGE_LOOP('',(#23));
#129=EDGE_LOOP('',(#24));
#130=EDGE_LOOP('',(#25));
#131=EDGE_LOOP('',(#26));
#132=EDGE_LOOP('',(#27));
#133=EDGE_LOOP('',(#28));
#134=EDGE_LOOP('',(#29));
#135=EDGE_LOOP('',(#30));
#136=EDGE_LOOP('',(#31));
#137=EDGE_LOOP('',(#32));
#138=EDGE_LOOP('',(#33));
#139=EDGE_LOOP('',(#34));
#140=EDGE_LOOP('',(#35));
#141=EDGE_LOOP('',(#36));
#142=EDGE_LOOP('',(#37));
#143=EDGE_LOOP('',(#38));
#144=EDGE_LOOP('',(#39));
#145=EDGE_LOOP('',(#40));
#146=EDGE_LOOP('',(#41));
#147=EDGE_LOOP('',(#42));
#148=EDGE_LOOP('',(#43));
#149=EDGE_LOOP('',(#44));
#150=EDGE_LOOP('',(#45));
#151=EDGE_LOOP('',(#46));
#152=EDGE_LOOP('',(#47));
#153=EDGE_LOOP('',(#48));
#154=EDGE_LOOP('',(#49));
#155=EDGE_LOOP('',(#50));
#156=EDGE_LOOP('',(#51));
#157=EDGE_LOOP('',(#52));
#158=EDGE_LOOP('',(#53));
#159=EDGE_LOOP('',(#54));
#160=EDGE_LOOP('',(#55));
#161=EDGE_LOOP('',(#56));
#162=EDGE_LOOP('',(#57));
#163=EDGE_LOOP('',(#58));
#164=EDGE_LOOP('',(#59));
#165=EDGE_LOOP('',(#60));
#166=EDGE_LOOP('',(#61));
#167=EDGE_LOOP('',(#62));
#168=EDGE_LOOP('',(#63));
#169=FACE_BOUND('',#127,.T.);
#170=FACE_BOUND('',#128,.T.);
#171=FACE_BOUND('',#129,.T.);
#172=FACE_BOUND('',#130,.T.);
#173=FACE_BOUND('',#131,.T.);
#174=FACE_BOUND('',#132,.T.);
#175=FACE_BOUND('',#133,.T.);
#176=FACE_BOUND('',#134,.T.);
#177=FACE_BOUND('',#135,.T.);
#178=FACE_BOUND('',#136,.T.);
#179=FACE_BOUND('',#137,.T.);
#180=FACE_BOUND('',#138,.T.);
#181=FACE_BOUND('',#139,.T.);
#182=FACE_BOUND('',#140,.T.);
#183=FACE_BOUND('',#141,.T.);
#184=FACE_BOUND('',#142,.T.);
#185=FACE_BOUND('',#143,.T.);
#186=FACE_BOUND('',#144,.T.);
#187=FACE_BOUND('',#145,.T.);
#188=FACE_BOUND('',#146,.T.);
#189=FACE_BOUND('',#147,.T.);
#190=FACE_BOUND('',#148,.T.);
#191=FACE_BOUND('',#149,.T.);
#192=FACE_BOUND('',#150,.T.);
#193=FACE_BOUND('',#151,.T.);
#194=FACE_BOUND('',#152,.T.);
#195=FACE_BOUND('',#153,.T.);
#196=FACE_BOUND('',#154,.T.);
#197=FACE_BOUND('',#155,.T.);
#198=FACE_BOUND('',#156,.T.);
#199=FACE_BOUND('',#157,.T.);
#200=FACE_BOUND('',#158,.T.);
#201=FACE_BOUND('',#159,.T.);
#202=FACE_BOUND('',#160,.T.);
#203=FACE_BOUND('',#161,.T.);
#204=FACE_BOUND('',#162,.T.);
#205=FACE_BOUND('',#163,.T.);
#206=FACE_BOUND('',#164,.T.);
#207=FACE_BOUND('',#165,.T.);
#208=FACE_BOUND('',#166,.T.);
#209=FACE_BOUND('',#167,.T.);
#210=FACE_BOUND('',#168,.T.);
#211=CYLINDRICAL_SURFACE('',#250,0.01);
#212=CYLINDRICAL_SURFACE('',#253,0.014);
#213=CYLINDRICAL_SURFACE('',#261,0.043);
#214=CYLINDRICAL_SURFACE('',#278,0.00225);
#215=CYLINDRICAL_SURFACE('',#279,0.00225);
#216=CYLINDRICAL_SURFACE('',#280,0.00225);
#217=CYLINDRICAL_SURFACE('',#281,0.00225);
#218=CYLINDRICAL_SURFACE('',#284,0.00595);
#219=ADVANCED_FACE('',(#169,#170),#211,.T.);
#220=ADVANCED_FACE('',(#171,#172),#212,.T.);
#221=ADVANCED_FACE('',(#173,#174),#17,.T.);
#222=ADVANCED_FACE('',(#175,#176),#18,.F.);
#223=ADVANCED_FACE('',(#177,#178),#15,.F.);
#224=ADVANCED_FACE('',(#179,#180),#213,.T.);
#225=ADVANCED_FACE('',(#181,#182,#183,#184,#185,#186),#19,.F.);
#226=ADVANCED_FACE('',(#187,#188,#189,#190,#191),#20,.T.);
#227=ADVANCED_FACE('',(#192,#193),#16,.F.);
#228=ADVANCED_FACE('',(#194,#195),#12,.T.);
#229=ADVANCED_FACE('',(#196,#197),#214,.F.);
#230=ADVANCED_FACE('',(#198,#199),#215,.F.);
#231=ADVANCED_FACE('',(#200,#201),#216,.F.);
#232=ADVANCED_FACE('',(#202,#203),#217,.F.);
#233=ADVANCED_FACE('',(#204,#205),#13,.F.);
#234=ADVANCED_FACE('',(#206,#207),#218,.T.);
#235=ADVANCED_FACE('',(#208),#21,.F.);
#236=ADVANCED_FACE('',(#209,#210),#14,.T.);
#237=CLOSED_SHELL('',(#219,#220,#221,#222,#223,#224,#225,#226,#227,#228,
#229,#230,#231,#232,#233,#234,#235,#236));
#238=STYLED_ITEM('',(#239),#246);
#239=PRESENTATION_STYLE_ASSIGNMENT((#240));
#240=SURFACE_STYLE_USAGE(.BOTH.,#241);
#241=SURFACE_SIDE_STYLE('',(#242));
#242=SURFACE_STYLE_FILL_AREA(#243);
#243=FILL_AREA_STYLE('',(#244));
#244=FILL_AREA_STYLE_COLOUR('',#245);
#245=COLOUR_RGB('',0.43921568627451,0.474509803921569,0.501960784313726);
#246=MANIFOLD_SOLID_BREP('Part 1',#237);
#247=SHAPE_DEFINITION_REPRESENTATION(#436,#248);
#248=SHAPE_REPRESENTATION('Part 1',(#249),#431);
#249=AXIS2_PLACEMENT_3D('',#369,#289,#290);
#250=AXIS2_PLACEMENT_3D('',#370,#291,#292);
#251=AXIS2_PLACEMENT_3D('',#371,#293,#294);
#252=AXIS2_PLACEMENT_3D('',#373,#295,#296);
#253=AXIS2_PLACEMENT_3D('',#375,#297,#298);
#254=AXIS2_PLACEMENT_3D('',#376,#299,#300);
#255=AXIS2_PLACEMENT_3D('',#378,#301,#302);
#256=AXIS2_PLACEMENT_3D('',#380,#303,#304);
#257=AXIS2_PLACEMENT_3D('',#381,#305,#306);
#258=AXIS2_PLACEMENT_3D('',#383,#307,#308);
#259=AXIS2_PLACEMENT_3D('',#384,#309,#310);
#260=AXIS2_PLACEMENT_3D('',#386,#311,#312);
#261=AXIS2_PLACEMENT_3D('',#387,#313,#314);
#262=AXIS2_PLACEMENT_3D('',#388,#315,#316);
#263=AXIS2_PLACEMENT_3D('',#390,#317,#318);
#264=AXIS2_PLACEMENT_3D('',#392,#319,#320);
#265=AXIS2_PLACEMENT_3D('',#393,#321,#322);
#266=AXIS2_PLACEMENT_3D('',#395,#323,#324);
#267=AXIS2_PLACEMENT_3D('',#397,#325,#326);
#268=AXIS2_PLACEMENT_3D('',#399,#327,#328);
#269=AXIS2_PLACEMENT_3D('',#401,#329,#330);
#270=AXIS2_PLACEMENT_3D('',#403,#331,#332);
#271=AXIS2_PLACEMENT_3D('',#405,#333,#334);
#272=AXIS2_PLACEMENT_3D('',#406,#335,#336);
#273=AXIS2_PLACEMENT_3D('',#408,#337,#338);
#274=AXIS2_PLACEMENT_3D('',#410,#339,#340);
#275=AXIS2_PLACEMENT_3D('',#412,#341,#342);
#276=AXIS2_PLACEMENT_3D('',#414,#343,#344);
#277=AXIS2_PLACEMENT_3D('',#415,#345,#346);
#278=AXIS2_PLACEMENT_3D('',#416,#347,#348);
#279=AXIS2_PLACEMENT_3D('',#417,#349,#350);
#280=AXIS2_PLACEMENT_3D('',#418,#351,#352);
#281=AXIS2_PLACEMENT_3D('',#419,#353,#354);
#282=AXIS2_PLACEMENT_3D('',#420,#355,#356);
#283=AXIS2_PLACEMENT_3D('',#422,#357,#358);
#284=AXIS2_PLACEMENT_3D('',#423,#359,#360);
#285=AXIS2_PLACEMENT_3D('',#424,#361,#362);
#286=AXIS2_PLACEMENT_3D('',#426,#363,#364);
#287=AXIS2_PLACEMENT_3D('',#427,#365,#366);
#288=AXIS2_PLACEMENT_3D('',#429,#367,#368);
#289=DIRECTION('',(0.,0.,1.));
#290=DIRECTION('',(1.,0.,0.));
#291=DIRECTION('',(0.,0.,-1.));
#292=DIRECTION('',(-1.,0.,0.));
#293=DIRECTION('',(0.,0.,1.));
#294=DIRECTION('',(1.,0.,0.));
#295=DIRECTION('',(0.,0.,1.));
#296=DIRECTION('',(1.,0.,0.));
#297=DIRECTION('',(0.,0.,-1.));
#298=DIRECTION('',(-1.,0.,0.));
#299=DIRECTION('',(0.,0.,1.));
#300=DIRECTION('',(1.,0.,0.));
#301=DIRECTION('',(0.,0.,1.));
#302=DIRECTION('',(1.,0.,0.));
#303=DIRECTION('',(0.,0.,1.));
#304=DIRECTION('',(1.,0.,0.));
#305=DIRECTION('',(0.,0.,1.));
#306=DIRECTION('',(1.,0.,0.));
#307=DIRECTION('',(0.,0.,1.));
#308=DIRECTION('',(1.,0.,0.));
#309=DIRECTION('',(0.,0.,-1.));
#310=DIRECTION('',(-1.,0.,0.));
#311=DIRECTION('',(0.,0.,1.));
#312=DIRECTION('',(1.,0.,0.));
#313=DIRECTION('',(0.,0.,1.));
#314=DIRECTION('',(1.,0.,0.));
#315=DIRECTION('',(0.,0.,1.));
#316=DIRECTION('',(1.,0.,0.));
#317=DIRECTION('',(0.,0.,1.));
#318=DIRECTION('',(1.,0.,0.));
#319=DIRECTION('',(0.,0.,1.));
#320=DIRECTION('',(1.,0.,0.));
#321=DIRECTION('',(0.,0.,1.));
#322=DIRECTION('',(1.,0.,0.));
#323=DIRECTION('',(0.,0.,1.));
#324=DIRECTION('',(1.,0.,0.));
#325=DIRECTION('',(0.,0.,1.));
#326=DIRECTION('',(1.,0.,0.));
#327=DIRECTION('',(0.,0.,1.));
#328=DIRECTION('',(1.,0.,0.));
#329=DIRECTION('',(0.,0.,1.));
#330=DIRECTION('',(1.,0.,0.));
#331=DIRECTION('',(0.,0.,1.));
#332=DIRECTION('',(1.,0.,0.));
#333=DIRECTION('',(0.,0.,1.));
#334=DIRECTION('',(1.,0.,0.));
#335=DIRECTION('',(0.,0.,1.));
#336=DIRECTION('',(1.,0.,0.));
#337=DIRECTION('',(0.,0.,1.));
#338=DIRECTION('',(1.,0.,0.));
#339=DIRECTION('',(0.,0.,1.));
#340=DIRECTION('',(1.,0.,0.));
#341=DIRECTION('',(0.,0.,1.));
#342=DIRECTION('',(1.,0.,0.));
#343=DIRECTION('',(0.,0.,1.));
#344=DIRECTION('',(1.,0.,0.));
#345=DIRECTION('',(0.,0.,1.));
#346=DIRECTION('',(1.,0.,0.));
#347=DIRECTION('',(0.,0.,1.));
#348=DIRECTION('',(1.,0.,0.));
#349=DIRECTION('',(0.,0.,1.));
#350=DIRECTION('',(1.,0.,0.));
#351=DIRECTION('',(0.,0.,1.));
#352=DIRECTION('',(1.,0.,0.));
#353=DIRECTION('',(0.,0.,1.));
#354=DIRECTION('',(1.,0.,0.));
#355=DIRECTION('',(0.,0.,1.));
#356=DIRECTION('',(1.,0.,0.));
#357=DIRECTION('',(0.,0.,1.));
#358=DIRECTION('',(1.,0.,0.));
#359=DIRECTION('',(0.,0.,-1.));
#360=DIRECTION('',(-1.,0.,0.));
#361=DIRECTION('',(0.,0.,1.));
#362=DIRECTION('',(1.,0.,0.));
#363=DIRECTION('',(0.,0.,1.));
#364=DIRECTION('',(1.,0.,0.));
#365=DIRECTION('',(0.,0.,1.));
#366=DIRECTION('',(1.,0.,0.));
#367=DIRECTION('',(0.,0.,1.));
#368=DIRECTION('',(1.,0.,0.));
#369=CARTESIAN_POINT('',(0.,0.,0.));
#370=CARTESIAN_POINT('',(0.,6.12323399573677E-19,0.175));
#371=CARTESIAN_POINT('',(0.,6.12323399573677E-19,0.167));
#372=CARTESIAN_POINT('',(0.01,6.12323399573677E-19,0.167));
#373=CARTESIAN_POINT('',(0.,6.12323399573677E-19,0.0095));
#374=CARTESIAN_POINT('',(0.01,6.12323399573677E-19,0.0095));
#375=CARTESIAN_POINT('',(0.,8.57252759403147E-19,0.0075));
#376=CARTESIAN_POINT('',(0.,8.57252759403147E-19,0.0075));
#377=CARTESIAN_POINT('',(0.014,8.57252759403147E-19,0.0075));
#378=CARTESIAN_POINT('',(0.,8.57252759403147E-19,0.0035));
#379=CARTESIAN_POINT('',(0.014,8.57252759403147E-19,0.0035));
#380=CARTESIAN_POINT('',(0.,0.,0.0075));
#381=CARTESIAN_POINT('',(0.,6.12323399573677E-19,0.0075));
#382=CARTESIAN_POINT('',(0.012,6.12323399573677E-19,0.0075));
#383=CARTESIAN_POINT('',(0.,0.,0.0035));
#384=CARTESIAN_POINT('',(0.,-3.64332422746337E-19,0.0035));
#385=CARTESIAN_POINT('',(-0.00595,-3.64332422746337E-19,0.0035));
#386=CARTESIAN_POINT('',(0.,6.12323399573677E-19,0.0095));
#387=CARTESIAN_POINT('',(0.,2.63299061816681E-18,0.169));
#388=CARTESIAN_POINT('',(0.,2.63299061816681E-18,0.1695));
#389=CARTESIAN_POINT('',(0.043,2.63299061816681E-18,0.1695));
#390=CARTESIAN_POINT('',(0.,2.63299061816681E-18,0.175));
#391=CARTESIAN_POINT('',(0.043,2.63299061816681E-18,0.175));
#392=CARTESIAN_POINT('',(0.,0.,0.169));
#393=CARTESIAN_POINT('',(0.,0.0385,0.169));
#394=CARTESIAN_POINT('',(0.00225,0.0385,0.169));
#395=CARTESIAN_POINT('',(0.0385,1.37772764904077E-19,0.169));
#396=CARTESIAN_POINT('',(0.04075,1.37772764904077E-19,0.169));
#397=CARTESIAN_POINT('',(0.,-0.0385,0.169));
#398=CARTESIAN_POINT('',(0.00225,-0.0385,0.169));
#399=CARTESIAN_POINT('',(-0.0385,1.37772764904077E-19,0.169));
#400=CARTESIAN_POINT('',(-0.03625,1.37772764904077E-19,0.169));
#401=CARTESIAN_POINT('',(0.,2.63299061816681E-18,0.169));
#402=CARTESIAN_POINT('',(0.0425,2.63299061816681E-18,0.169));
#403=CARTESIAN_POINT('',(0.,6.12323399573677E-19,0.169));
#404=CARTESIAN_POINT('',(0.012,6.12323399573677E-19,0.169));
#405=CARTESIAN_POINT('',(0.,0.,0.175));
#406=CARTESIAN_POINT('',(0.,0.0385,0.175));
#407=CARTESIAN_POINT('',(0.00275,0.0385,0.175));
#408=CARTESIAN_POINT('',(0.0385,1.37772764904077E-19,0.175));
#409=CARTESIAN_POINT('',(0.04075,1.37772764904077E-19,0.175));
#410=CARTESIAN_POINT('',(0.,-0.0385,0.175));
#411=CARTESIAN_POINT('',(0.00225,-0.0385,0.175));
#412=CARTESIAN_POINT('',(-0.0385,1.37772764904077E-19,0.175));
#413=CARTESIAN_POINT('',(-0.03625,1.37772764904077E-19,0.175));
#414=CARTESIAN_POINT('',(0.,6.12323399573677E-19,0.167));
#415=CARTESIAN_POINT('',(0.,2.63299061816681E-18,0.1695));
#416=CARTESIAN_POINT('',(-0.0385,1.37772764904077E-19,0.15));
#417=CARTESIAN_POINT('',(0.,-0.0385,0.15));
#418=CARTESIAN_POINT('',(0.0385,1.37772764904077E-19,0.15));
#419=CARTESIAN_POINT('',(0.,0.0385,0.15));
#420=CARTESIAN_POINT('',(0.,0.0385,0.1745));
#421=CARTESIAN_POINT('',(0.00225,0.0385,0.1745));
#422=CARTESIAN_POINT('',(0.,0.0385,0.1745));
#423=CARTESIAN_POINT('',(0.,-3.64332422746337E-19,0.0035));
#424=CARTESIAN_POINT('',(0.,-3.64332422746337E-19,0.0005));
#425=CARTESIAN_POINT('',(0.00595,-3.64332422746337E-19,0.0005));
#426=CARTESIAN_POINT('',(0.,0.,0.));
#427=CARTESIAN_POINT('',(0.,-3.64332422746337E-19,0.));
#428=CARTESIAN_POINT('',(0.00545,-3.64332422746337E-19,0.));
#429=CARTESIAN_POINT('',(0.,-3.64332422746337E-19,0.));
#430=MECHANICAL_DESIGN_GEOMETRIC_PRESENTATION_REPRESENTATION('',(#238),
#431);
#431=(
GEOMETRIC_REPRESENTATION_CONTEXT(3)
GLOBAL_UNCERTAINTY_ASSIGNED_CONTEXT((#432))
GLOBAL_UNIT_ASSIGNED_CONTEXT((#435,#434,#433))
REPRESENTATION_CONTEXT('Part 1','TOP_LEVEL_ASSEMBLY_PART')
);
#432=UNCERTAINTY_MEASURE_WITH_UNIT(LENGTH_MEASURE(5.E-6),#435,
'DISTANCE_ACCURACY_VALUE','Maximum Tolerance applied to model');
#433=(
NAMED_UNIT(*)
SI_UNIT($,.STERADIAN.)
SOLID_ANGLE_UNIT()
);
#434=(
NAMED_UNIT(*)
PLANE_ANGLE_UNIT()
SI_UNIT($,.RADIAN.)
);
#435=(
LENGTH_UNIT()
NAMED_UNIT(*)
SI_UNIT($,.METRE.)
);
#436=PRODUCT_DEFINITION_SHAPE('','',#437);
#437=PRODUCT_DEFINITION('','',#439,#438);
#438=PRODUCT_DEFINITION_CONTEXT('',#445,'design');
#439=PRODUCT_DEFINITION_FORMATION_WITH_SPECIFIED_SOURCE('','',#441,
 .NOT_KNOWN.);
#440=PRODUCT_RELATED_PRODUCT_CATEGORY('','',(#441));
#441=PRODUCT('Part 1','Part 1','Part 1',(#443));
#442=PRODUCT_CATEGORY('','');
#443=PRODUCT_CONTEXT('',#445,'mechanical');
#444=APPLICATION_PROTOCOL_DEFINITION('international standard',
'ap242_managed_model_based_3d_engineering',2011,#445);
#445=APPLICATION_CONTEXT('managed model based 3d engineering');
ENDSEC;
END-ISO-10303-21;
