ISO-10303-21;
HEADER;
/* Generated by software containing ST-Developer
 * from STEP Tools, Inc. (www.steptools.com) 
 */
/* OPTION: using custom renumber hook */

FILE_DESCRIPTION(
/* description */ ('STEP AP242',
'CAx-IF Rec.Pracs.---Representation and Presentation of Product Manufa
cturing Information (PMI)---4.0---2014-10-13',
'CAx-IF Rec.Pracs.---3D Tessellated Geometry---0.4---2014-09-14','2;1'),

/* implementation_level */ '2;1');

FILE_NAME(
/* name */ '670e335e8d90d70d224f169a',
/* time_stamp */ '2024-10-15T09:18:22Z',
/* author */ (''),
/* organization */ (''),
/* preprocessor_version */ 'ST-DEVELOPER v20',
/* originating_system */ '  ',
/* authorisation */ '  ');

FILE_SCHEMA (('AP242_MANAGED_MODEL_BASED_3D_ENGINEERING_MIM_LF { 1 0 10303 442 1 1 4 }'));
ENDSEC;

DATA;
#10=SHAPE_REPRESENTATION_RELATIONSHIP('','',#178,#11);
#11=ADVANCED_BREP_SHAPE_REPRESENTATION('',(#176),#305);
#12=VERTEX_LOOP('',#71);
#13=VERTEX_LOOP('',#73);
#14=VERTEX_LOOP('',#75);
#15=VERTEX_LOOP('',#77);
#16=CONICAL_SURFACE('',#193,0.002,1.02974425867665);
#17=CONICAL_SURFACE('',#196,0.002,1.02974425867665);
#18=CONICAL_SURFACE('',#199,0.002,1.02974425867665);
#19=CONICAL_SURFACE('',#202,0.002,1.02974425867665);
#20=CONICAL_SURFACE('',#205,0.0374,0.785398163397448);
#21=PLANE('',#186);
#22=PLANE('',#191);
#23=ORIENTED_EDGE('',*,*,#49,.T.);
#24=ORIENTED_EDGE('',*,*,#50,.T.);
#25=ORIENTED_EDGE('',*,*,#51,.F.);
#26=ORIENTED_EDGE('',*,*,#52,.T.);
#27=ORIENTED_EDGE('',*,*,#53,.T.);
#28=ORIENTED_EDGE('',*,*,#54,.T.);
#29=ORIENTED_EDGE('',*,*,#55,.T.);
#30=ORIENTED_EDGE('',*,*,#56,.T.);
#31=ORIENTED_EDGE('',*,*,#50,.F.);
#32=ORIENTED_EDGE('',*,*,#51,.T.);
#33=ORIENTED_EDGE('',*,*,#57,.T.);
#34=ORIENTED_EDGE('',*,*,#52,.F.);
#35=ORIENTED_EDGE('',*,*,#58,.F.);
#36=ORIENTED_EDGE('',*,*,#58,.T.);
#37=ORIENTED_EDGE('',*,*,#56,.F.);
#38=ORIENTED_EDGE('',*,*,#59,.F.);
#39=ORIENTED_EDGE('',*,*,#59,.T.);
#40=ORIENTED_EDGE('',*,*,#55,.F.);
#41=ORIENTED_EDGE('',*,*,#60,.F.);
#42=ORIENTED_EDGE('',*,*,#60,.T.);
#43=ORIENTED_EDGE('',*,*,#54,.F.);
#44=ORIENTED_EDGE('',*,*,#61,.F.);
#45=ORIENTED_EDGE('',*,*,#61,.T.);
#46=ORIENTED_EDGE('',*,*,#53,.F.);
#47=ORIENTED_EDGE('',*,*,#49,.F.);
#48=ORIENTED_EDGE('',*,*,#57,.F.);
#49=EDGE_CURVE('',#62,#62,#79,.F.);
#50=EDGE_CURVE('',#63,#63,#80,.T.);
#51=EDGE_CURVE('',#64,#64,#81,.T.);
#52=EDGE_CURVE('',#65,#65,#82,.T.);
#53=EDGE_CURVE('',#66,#66,#83,.T.);
#54=EDGE_CURVE('',#67,#67,#84,.T.);
#55=EDGE_CURVE('',#68,#68,#85,.T.);
#56=EDGE_CURVE('',#69,#69,#86,.T.);
#57=EDGE_CURVE('',#70,#70,#87,.T.);
#58=EDGE_CURVE('',#72,#72,#88,.T.);
#59=EDGE_CURVE('',#74,#74,#89,.T.);
#60=EDGE_CURVE('',#76,#76,#90,.T.);
#61=EDGE_CURVE('',#78,#78,#91,.T.);
#62=VERTEX_POINT('',#263);
#63=VERTEX_POINT('',#265);
#64=VERTEX_POINT('',#268);
#65=VERTEX_POINT('',#270);
#66=VERTEX_POINT('',#273);
#67=VERTEX_POINT('',#275);
#68=VERTEX_POINT('',#277);
#69=VERTEX_POINT('',#279);
#70=VERTEX_POINT('',#282);
#71=VERTEX_POINT('',#284);
#72=VERTEX_POINT('',#286);
#73=VERTEX_POINT('',#289);
#74=VERTEX_POINT('',#291);
#75=VERTEX_POINT('',#294);
#76=VERTEX_POINT('',#296);
#77=VERTEX_POINT('',#299);
#78=VERTEX_POINT('',#301);
#79=CIRCLE('',#181,0.0354);
#80=CIRCLE('',#182,0.0354);
#81=CIRCLE('',#184,0.043);
#82=CIRCLE('',#185,0.043);
#83=CIRCLE('',#187,0.002);
#84=CIRCLE('',#188,0.002);
#85=CIRCLE('',#189,0.002);
#86=CIRCLE('',#190,0.002);
#87=CIRCLE('',#192,0.0374);
#88=CIRCLE('',#194,0.002);
#89=CIRCLE('',#197,0.002);
#90=CIRCLE('',#200,0.002);
#91=CIRCLE('',#203,0.002);
#92=EDGE_LOOP('',(#23));
#93=EDGE_LOOP('',(#24));
#94=EDGE_LOOP('',(#25));
#95=EDGE_LOOP('',(#26));
#96=EDGE_LOOP('',(#27));
#97=EDGE_LOOP('',(#28));
#98=EDGE_LOOP('',(#29));
#99=EDGE_LOOP('',(#30));
#100=EDGE_LOOP('',(#31));
#101=EDGE_LOOP('',(#32));
#102=EDGE_LOOP('',(#33));
#103=EDGE_LOOP('',(#34));
#104=EDGE_LOOP('',(#35));
#105=EDGE_LOOP('',(#36));
#106=EDGE_LOOP('',(#37));
#107=EDGE_LOOP('',(#38));
#108=EDGE_LOOP('',(#39));
#109=EDGE_LOOP('',(#40));
#110=EDGE_LOOP('',(#41));
#111=EDGE_LOOP('',(#42));
#112=EDGE_LOOP('',(#43));
#113=EDGE_LOOP('',(#44));
#114=EDGE_LOOP('',(#45));
#115=EDGE_LOOP('',(#46));
#116=EDGE_LOOP('',(#47));
#117=EDGE_LOOP('',(#48));
#118=FACE_BOUND('',#92,.T.);
#119=FACE_BOUND('',#93,.T.);
#120=FACE_BOUND('',#94,.T.);
#121=FACE_BOUND('',#95,.T.);
#122=FACE_BOUND('',#96,.T.);
#123=FACE_BOUND('',#97,.T.);
#124=FACE_BOUND('',#98,.T.);
#125=FACE_BOUND('',#99,.T.);
#126=FACE_BOUND('',#100,.T.);
#127=FACE_BOUND('',#101,.T.);
#128=FACE_BOUND('',#102,.T.);
#129=FACE_BOUND('',#103,.T.);
#130=FACE_BOUND('',#12,.T.);
#131=FACE_BOUND('',#104,.T.);
#132=FACE_BOUND('',#105,.T.);
#133=FACE_BOUND('',#106,.T.);
#134=FACE_BOUND('',#13,.T.);
#135=FACE_BOUND('',#107,.T.);
#136=FACE_BOUND('',#108,.T.);
#137=FACE_BOUND('',#109,.T.);
#138=FACE_BOUND('',#14,.T.);
#139=FACE_BOUND('',#110,.T.);
#140=FACE_BOUND('',#111,.T.);
#141=FACE_BOUND('',#112,.T.);
#142=FACE_BOUND('',#15,.T.);
#143=FACE_BOUND('',#113,.T.);
#144=FACE_BOUND('',#114,.T.);
#145=FACE_BOUND('',#115,.T.);
#146=FACE_BOUND('',#116,.T.);
#147=FACE_BOUND('',#117,.T.);
#148=CYLINDRICAL_SURFACE('',#180,0.0354);
#149=CYLINDRICAL_SURFACE('',#183,0.043);
#150=CYLINDRICAL_SURFACE('',#195,0.002);
#151=CYLINDRICAL_SURFACE('',#198,0.002);
#152=CYLINDRICAL_SURFACE('',#201,0.002);
#153=CYLINDRICAL_SURFACE('',#204,0.002);
#154=ADVANCED_FACE('',(#118,#119),#148,.F.);
#155=ADVANCED_FACE('',(#120,#121),#149,.T.);
#156=ADVANCED_FACE('',(#122,#123,#124,#125,#126,#127),#21,.T.);
#157=ADVANCED_FACE('',(#128,#129),#22,.F.);
#158=ADVANCED_FACE('',(#130,#131),#16,.F.);
#159=ADVANCED_FACE('',(#132,#133),#150,.F.);
#160=ADVANCED_FACE('',(#134,#135),#17,.F.);
#161=ADVANCED_FACE('',(#136,#137),#151,.F.);
#162=ADVANCED_FACE('',(#138,#139),#18,.F.);
#163=ADVANCED_FACE('',(#140,#141),#152,.F.);
#164=ADVANCED_FACE('',(#142,#143),#19,.F.);
#165=ADVANCED_FACE('',(#144,#145),#153,.F.);
#166=ADVANCED_FACE('',(#146,#147),#20,.F.);
#167=CLOSED_SHELL('',(#154,#155,#156,#157,#158,#159,#160,#161,#162,#163,
#164,#165,#166));
#168=STYLED_ITEM('',(#169),#176);
#169=PRESENTATION_STYLE_ASSIGNMENT((#170));
#170=SURFACE_STYLE_USAGE(.BOTH.,#171);
#171=SURFACE_SIDE_STYLE('',(#172));
#172=SURFACE_STYLE_FILL_AREA(#173);
#173=FILL_AREA_STYLE('',(#174));
#174=FILL_AREA_STYLE_COLOUR('',#175);
#175=COLOUR_RGB('',0.501960784313726,0.501960784313726,0.501960784313726);
#176=MANIFOLD_SOLID_BREP('Part 1',#167);
#177=SHAPE_DEFINITION_REPRESENTATION(#310,#178);
#178=SHAPE_REPRESENTATION('Part 1',(#179),#305);
#179=AXIS2_PLACEMENT_3D('',#260,#206,#207);
#180=AXIS2_PLACEMENT_3D('',#261,#208,#209);
#181=AXIS2_PLACEMENT_3D('',#262,#210,#211);
#182=AXIS2_PLACEMENT_3D('',#264,#212,#213);
#183=AXIS2_PLACEMENT_3D('',#266,#214,#215);
#184=AXIS2_PLACEMENT_3D('',#267,#216,#217);
#185=AXIS2_PLACEMENT_3D('',#269,#218,#219);
#186=AXIS2_PLACEMENT_3D('',#271,#220,#221);
#187=AXIS2_PLACEMENT_3D('',#272,#222,#223);
#188=AXIS2_PLACEMENT_3D('',#274,#224,#225);
#189=AXIS2_PLACEMENT_3D('',#276,#226,#227);
#190=AXIS2_PLACEMENT_3D('',#278,#228,#229);
#191=AXIS2_PLACEMENT_3D('',#280,#230,#231);
#192=AXIS2_PLACEMENT_3D('',#281,#232,#233);
#193=AXIS2_PLACEMENT_3D('',#283,#234,#235);
#194=AXIS2_PLACEMENT_3D('',#285,#236,#237);
#195=AXIS2_PLACEMENT_3D('',#287,#238,#239);
#196=AXIS2_PLACEMENT_3D('',#288,#240,#241);
#197=AXIS2_PLACEMENT_3D('',#290,#242,#243);
#198=AXIS2_PLACEMENT_3D('',#292,#244,#245);
#199=AXIS2_PLACEMENT_3D('',#293,#246,#247);
#200=AXIS2_PLACEMENT_3D('',#295,#248,#249);
#201=AXIS2_PLACEMENT_3D('',#297,#250,#251);
#202=AXIS2_PLACEMENT_3D('',#298,#252,#253);
#203=AXIS2_PLACEMENT_3D('',#300,#254,#255);
#204=AXIS2_PLACEMENT_3D('',#302,#256,#257);
#205=AXIS2_PLACEMENT_3D('',#303,#258,#259);
#206=DIRECTION('',(0.,0.,1.));
#207=DIRECTION('',(1.,0.,0.));
#208=DIRECTION('',(0.,0.,-1.));
#209=DIRECTION('',(-1.,0.,0.));
#210=DIRECTION('',(0.,0.,1.));
#211=DIRECTION('',(1.,0.,0.));
#212=DIRECTION('',(0.,0.,1.));
#213=DIRECTION('',(1.,0.,0.));
#214=DIRECTION('',(0.,0.,-1.));
#215=DIRECTION('',(-1.,0.,0.));
#216=DIRECTION('',(0.,0.,1.));
#217=DIRECTION('',(1.,0.,0.));
#218=DIRECTION('',(0.,0.,1.));
#219=DIRECTION('',(1.,0.,0.));
#220=DIRECTION('',(0.,0.,1.));
#221=DIRECTION('',(1.,0.,0.));
#222=DIRECTION('',(0.,0.,-1.));
#223=DIRECTION('',(-1.,0.,0.));
#224=DIRECTION('',(0.,0.,-1.));
#225=DIRECTION('',(-1.,0.,0.));
#226=DIRECTION('',(0.,0.,-1.));
#227=DIRECTION('',(-1.,0.,0.));
#228=DIRECTION('',(0.,0.,-1.));
#229=DIRECTION('',(-1.,0.,0.));
#230=DIRECTION('',(0.,0.,1.));
#231=DIRECTION('',(1.,0.,0.));
#232=DIRECTION('',(0.,0.,1.));
#233=DIRECTION('',(1.,0.,0.));
#234=DIRECTION('',(0.,0.,1.));
#235=DIRECTION('',(1.,0.,0.));
#236=DIRECTION('',(0.,0.,-1.));
#237=DIRECTION('',(-1.,0.,0.));
#238=DIRECTION('',(0.,0.,-1.));
#239=DIRECTION('',(-1.,0.,0.));
#240=DIRECTION('',(0.,0.,1.));
#241=DIRECTION('',(1.,0.,0.));
#242=DIRECTION('',(0.,0.,-1.));
#243=DIRECTION('',(-1.,0.,0.));
#244=DIRECTION('',(0.,0.,-1.));
#245=DIRECTION('',(-1.,0.,0.));
#246=DIRECTION('',(0.,0.,1.));
#247=DIRECTION('',(1.,0.,0.));
#248=DIRECTION('',(0.,0.,-1.));
#249=DIRECTION('',(-1.,0.,0.));
#250=DIRECTION('',(0.,0.,-1.));
#251=DIRECTION('',(-1.,0.,0.));
#252=DIRECTION('',(0.,0.,1.));
#253=DIRECTION('',(1.,0.,0.));
#254=DIRECTION('',(0.,0.,-1.));
#255=DIRECTION('',(-1.,0.,0.));
#256=DIRECTION('',(0.,0.,-1.));
#257=DIRECTION('',(-1.,0.,0.));
#258=DIRECTION('',(0.,0.,-1.));
#259=DIRECTION('',(-1.,0.,0.));
#260=CARTESIAN_POINT('',(0.,0.,0.));
#261=CARTESIAN_POINT('',(0.,2.16762483449081E-18,0.08));
#262=CARTESIAN_POINT('',(0.,2.16762483449081E-18,0.002));
#263=CARTESIAN_POINT('',(0.0354,2.16762483449081E-18,0.002));
#264=CARTESIAN_POINT('',(0.,2.16762483449081E-18,0.08));
#265=CARTESIAN_POINT('',(0.0354,2.16762483449081E-18,0.08));
#266=CARTESIAN_POINT('',(0.,2.63299061816681E-18,0.08));
#267=CARTESIAN_POINT('',(0.,2.63299061816681E-18,0.08));
#268=CARTESIAN_POINT('',(0.043,2.63299061816681E-18,0.08));
#269=CARTESIAN_POINT('',(0.,2.63299061816681E-18,0.));
#270=CARTESIAN_POINT('',(0.043,2.63299061816681E-18,0.));
#271=CARTESIAN_POINT('',(0.,0.,0.08));
#272=CARTESIAN_POINT('',(0.,0.0385,0.08));
#273=CARTESIAN_POINT('',(-0.002,0.0385,0.08));
#274=CARTESIAN_POINT('',(0.0385,-6.93889390390723E-18,0.08));
#275=CARTESIAN_POINT('',(0.0365,-6.93889390390723E-18,0.08));
#276=CARTESIAN_POINT('',(0.,-0.0385,0.08));
#277=CARTESIAN_POINT('',(-0.002,-0.0385,0.08));
#278=CARTESIAN_POINT('',(-0.0385,-6.93889390390723E-18,0.08));
#279=CARTESIAN_POINT('',(-0.0405,-6.93889390390723E-18,0.08));
#280=CARTESIAN_POINT('',(0.,0.,0.));
#281=CARTESIAN_POINT('',(0.,2.16762483449081E-18,0.));
#282=CARTESIAN_POINT('',(0.0374,2.16762483449081E-18,0.));
#283=CARTESIAN_POINT('',(-0.0385,-6.93889390390723E-18,0.068));
#284=CARTESIAN_POINT('',(-0.0385,-6.93889390390723E-18,0.0667982787619449));
#285=CARTESIAN_POINT('',(-0.0385,-6.93889390390723E-18,0.068));
#286=CARTESIAN_POINT('',(-0.0405,-6.93889390390723E-18,0.068));
#287=CARTESIAN_POINT('',(-0.0385,-6.93889390390723E-18,0.08));
#288=CARTESIAN_POINT('',(0.,-0.0385,0.068));
#289=CARTESIAN_POINT('',(0.,-0.0385,0.0667982787619449));
#290=CARTESIAN_POINT('',(0.,-0.0385,0.068));
#291=CARTESIAN_POINT('',(-0.002,-0.0385,0.068));
#292=CARTESIAN_POINT('',(0.,-0.0385,0.08));
#293=CARTESIAN_POINT('',(0.0385,-6.93889390390723E-18,0.068));
#294=CARTESIAN_POINT('',(0.0385,-6.93889390390723E-18,0.0667982787619449));
#295=CARTESIAN_POINT('',(0.0385,-6.93889390390723E-18,0.068));
#296=CARTESIAN_POINT('',(0.0365,-6.93889390390723E-18,0.068));
#297=CARTESIAN_POINT('',(0.0385,-6.93889390390723E-18,0.08));
#298=CARTESIAN_POINT('',(0.,0.0385,0.068));
#299=CARTESIAN_POINT('',(0.,0.0385,0.0667982787619449));
#300=CARTESIAN_POINT('',(0.,0.0385,0.068));
#301=CARTESIAN_POINT('',(-0.002,0.0385,0.068));
#302=CARTESIAN_POINT('',(0.,0.0385,0.08));
#303=CARTESIAN_POINT('',(0.,2.16762483449081E-18,0.));
#304=MECHANICAL_DESIGN_GEOMETRIC_PRESENTATION_REPRESENTATION('',(#168),
#305);
#305=(
GEOMETRIC_REPRESENTATION_CONTEXT(3)
GLOBAL_UNCERTAINTY_ASSIGNED_CONTEXT((#306))
GLOBAL_UNIT_ASSIGNED_CONTEXT((#309,#308,#307))
REPRESENTATION_CONTEXT('Part 1','TOP_LEVEL_ASSEMBLY_PART')
);
#306=UNCERTAINTY_MEASURE_WITH_UNIT(LENGTH_MEASURE(5.E-6),#309,
'DISTANCE_ACCURACY_VALUE','Maximum Tolerance applied to model');
#307=(
NAMED_UNIT(*)
SI_UNIT($,.STERADIAN.)
SOLID_ANGLE_UNIT()
);
#308=(
NAMED_UNIT(*)
PLANE_ANGLE_UNIT()
SI_UNIT($,.RADIAN.)
);
#309=(
LENGTH_UNIT()
NAMED_UNIT(*)
SI_UNIT($,.METRE.)
);
#310=PRODUCT_DEFINITION_SHAPE('','',#311);
#311=PRODUCT_DEFINITION('','',#313,#312);
#312=PRODUCT_DEFINITION_CONTEXT('',#319,'design');
#313=PRODUCT_DEFINITION_FORMATION_WITH_SPECIFIED_SOURCE('','',#315,
 .NOT_KNOWN.);
#314=PRODUCT_RELATED_PRODUCT_CATEGORY('','',(#315));
#315=PRODUCT('Part 1','Part 1','Part 1',(#317));
#316=PRODUCT_CATEGORY('','');
#317=PRODUCT_CONTEXT('',#319,'mechanical');
#318=APPLICATION_PROTOCOL_DEFINITION('international standard',
'ap242_managed_model_based_3d_engineering',2011,#319);
#319=APPLICATION_CONTEXT('managed model based 3d engineering');
ENDSEC;
END-ISO-10303-21;
