ISO-10303-21;
HEADER;
FILE_DESCRIPTION (( 'STEP AP203' ),
    '1' );
FILE_NAME ('P01-Axe avec chanfrein.STEP',
    '2024-11-18T07:21:14',
    ( '' ),
    ( '' ),
    'SwSTEP 2.0',
    'SolidWorks 2024',
    '' );
FILE_SCHEMA (( 'CONFIG_CONTROL_DESIGN' ));
ENDSEC;

DATA;
#1 = CC_DESIGN_DATE_AND_TIME_ASSIGNMENT ( #14, #352, ( #342 ) ) ;
#2 = CARTESIAN_POINT ( 'NONE',  ( 184.7000000000000171, 0.000000000000000000, 0.000000000000000000 ) ) ;
#3 = MECHANICAL_CONTEXT ( 'NONE', #110, 'mechanical' ) ;
#4 = VERTEX_POINT ( 'NONE', #371 ) ;
#5 = DIRECTION ( 'NONE',  ( 1.000000000000000000, 0.000000000000000000, 0.000000000000000000 ) ) ;
#6 = EDGE_LOOP ( 'NONE', ( #95, #35, #302, #273 ) ) ;
#7 = APPROVAL_STATUS ( 'not_yet_approved' ) ;
#8 = ORIENTED_EDGE ( 'NONE', *, *, #171, .T. ) ;
#9 = APPROVAL_STATUS ( 'not_yet_approved' ) ;
#10 = ORIENTED_EDGE ( 'NONE', *, *, #361, .T. ) ;
#11 = PERSON_AND_ORGANIZATION ( #348, #194 ) ;
#12 = DESIGN_CONTEXT ( 'detailed design', #262, 'design' ) ;
#13 = ORIENTED_EDGE ( 'NONE', *, *, #253, .T. ) ;
#14 = DATE_AND_TIME ( #275, #256 ) ;
#15 = CC_DESIGN_SECURITY_CLASSIFICATION ( #342, ( #81 ) ) ;
#16 = DIRECTION ( 'NONE',  ( 0.000000000000000000, 0.000000000000000000, 1.000000000000000000 ) ) ;
#17 = CARTESIAN_POINT ( 'NONE',  ( 207.9999999999999147, 0.000000000000000000, 0.000000000000000000 ) ) ;
#18 = CIRCLE ( 'NONE', #219, 8.750000000000017764 ) ;
#19 = DIRECTION ( 'NONE',  ( -1.000000000000000000, 0.000000000000000000, -0.000000000000000000 ) ) ;
#20 = FACE_BOUND ( 'NONE', #236, .T. ) ;
#21 = AXIS2_PLACEMENT_3D ( 'NONE', #280, #338, #250 ) ;
#22 = DIRECTION ( 'NONE',  ( 0.000000000000000000, 0.000000000000000000, 1.000000000000000000 ) ) ;
#23 = EDGE_CURVE ( 'NONE', #186, #200, #158, .T. ) ;
#24 = DIRECTION ( 'NONE',  ( -1.000000000000000000, -0.000000000000000000, -0.000000000000000000 ) ) ;
#25 = LOCAL_TIME ( 8, 21, 13.00000000000000000, #38 ) ;
#26 = CC_DESIGN_PERSON_AND_ORGANIZATION_ASSIGNMENT ( #11, #43, ( #342 ) ) ;
#27 = FACE_OUTER_BOUND ( 'NONE', #103, .T. ) ;
#28 = FACE_BOUND ( 'NONE', #356, .T. ) ;
#29 = CC_DESIGN_PERSON_AND_ORGANIZATION_ASSIGNMENT ( #87, #32, ( #283 ) ) ;
#30 = DIRECTION ( 'NONE',  ( -1.000000000000000000, -0.000000000000000000, -0.000000000000000000 ) ) ;
#31 = DATE_AND_TIME ( #146, #204 ) ;
#32 = PERSON_AND_ORGANIZATION_ROLE ( 'design_owner' ) ;
#33 = VERTEX_POINT ( 'NONE', #278 ) ;
#34 = ADVANCED_FACE ( 'NONE', ( #160 ), #362, .T. ) ;
#35 = ORIENTED_EDGE ( 'NONE', *, *, #162, .T. ) ;
#36 = AXIS2_PLACEMENT_3D ( 'NONE', #129, #161, #220 ) ;
#37 = AXIS2_PLACEMENT_3D ( 'NONE', #350, #86, #22 ) ;
#38 = COORDINATED_UNIVERSAL_TIME_OFFSET ( 1, 0, .AHEAD. ) ;
#39 = ORIENTED_EDGE ( 'NONE', *, *, #261, .F. ) ;
#40 = VECTOR ( 'NONE', #85, 1000.000000000000000 ) ;
#41 = ORIENTED_EDGE ( 'NONE', *, *, #182, .F. ) ;
#42 = ADVANCED_FACE ( 'NONE', ( #187, #184 ), #75, .F. ) ;
#43 = PERSON_AND_ORGANIZATION_ROLE ( 'classification_officer' ) ;
#44 = ORIENTED_EDGE ( 'NONE', *, *, #114, .T. ) ;
#45 = ORIENTED_EDGE ( 'NONE', *, *, #23, .T. ) ;
#46 = LOCAL_TIME ( 8, 21, 13.00000000000000000, #202 ) ;
#47 = CARTESIAN_POINT ( 'NONE',  ( 184.7000000000000171, 1.224646799147355623E-15, -10.00000000000001954 ) ) ;
#48 = ORIENTED_EDGE ( 'NONE', *, *, #196, .F. ) ;
#49 = DIRECTION ( 'NONE',  ( -1.000000000000000000, -0.000000000000000000, -0.000000000000000000 ) ) ;
#50 = CARTESIAN_POINT ( 'NONE',  ( 210.0000000000000284, 0.000000000000000000, 0.000000000000000000 ) ) ;
#51 = CARTESIAN_POINT ( 'NONE',  ( 207.9999999999999147, 0.000000000000000000, 0.000000000000000000 ) ) ;
#52 = PLANE ( 'NONE',  #189 ) ;
#53 = CLOSED_SHELL ( 'NONE', ( #157, #105, #311, #242, #128, #224, #42, #34, #190, #334, #80 ) ) ;
#54 = AXIS2_PLACEMENT_3D ( 'NONE', #357, #240, #325 ) ;
#55 = EDGE_CURVE ( 'NONE', #125, #156, #282, .T. ) ;
#56 = CARTESIAN_POINT ( 'NONE',  ( 0.000000000000000000, 0.000000000000000000, 10.00000000000000888 ) ) ;
#57 = CYLINDRICAL_SURFACE ( 'NONE', #351, 5.000000000000000000 ) ;
#58 = FACE_OUTER_BOUND ( 'NONE', #244, .T. ) ;
#59 = DATE_TIME_ROLE ( 'creation_date' ) ;
#60 = ORIENTED_EDGE ( 'NONE', *, *, #375, .F. ) ;
#61 = EDGE_CURVE ( 'NONE', #268, #62, #378, .T. ) ;
#62 = VERTEX_POINT ( 'NONE', #47 ) ;
#63 = APPLICATION_PROTOCOL_DEFINITION ( 'international standard', 'config_control_design', 1994, #262 ) ;
#64 = ORIENTED_EDGE ( 'NONE', *, *, #114, .F. ) ;
#65 = AXIS2_PLACEMENT_3D ( 'NONE', #115, #235, #5 ) ;
#66 = PERSON_AND_ORGANIZATION ( #348, #194 ) ;
#67 = EDGE_CURVE ( 'NONE', #241, #178, #163, .T. ) ;
#68 = EDGE_LOOP ( 'NONE', ( #99, #117 ) ) ;
#69 = DIRECTION ( 'NONE',  ( 0.000000000000000000, 0.000000000000000000, 1.000000000000000000 ) ) ;
#70 = CIRCLE ( 'NONE', #286, 8.645184441433940492 ) ;
#71 = ORIENTED_EDGE ( 'NONE', *, *, #368, .T. ) ;
#72 = APPROVAL ( #9, 'UNSPECIFIED' ) ;
#73 = CARTESIAN_POINT ( 'NONE',  ( 184.7000000000000171, 0.000000000000000000, 0.000000000000000000 ) ) ;
#74 = CIRCLE ( 'NONE', #249, 8.750000000000015987 ) ;
#75 = PLANE ( 'NONE',  #132 ) ;
#76 = CC_DESIGN_APPROVAL ( #72, ( #81 ) ) ;
#77 = DIRECTION ( 'NONE',  ( 1.000000000000000000, 0.000000000000000000, 0.000000000000000000 ) ) ;
#78 = CARTESIAN_POINT ( 'NONE',  ( 210.0000000000000284, 0.000000000000000000, 0.000000000000000000 ) ) ;
#79 = ORIENTED_EDGE ( 'NONE', *, *, #294, .F. ) ;
#80 = ADVANCED_FACE ( 'NONE', ( #221 ), #365, .T. ) ;
#81 = PRODUCT_DEFINITION_FORMATION_WITH_SPECIFIED_SOURCE ( 'ANY', '', #283, .NOT_KNOWN. ) ;
#82 = DIRECTION ( 'NONE',  ( 0.000000000000000000, 0.000000000000000000, 1.000000000000000000 ) ) ;
#83 = DIRECTION ( 'NONE',  ( -1.000000000000000000, -0.000000000000000000, -0.000000000000000000 ) ) ;
#84 = CARTESIAN_POINT ( 'NONE',  ( 184.7000000000000171, 8.750000000000015987, 0.000000000000000000 ) ) ;
#85 = DIRECTION ( 'NONE',  ( -1.000000000000000000, -0.000000000000000000, -0.000000000000000000 ) ) ;
#86 = DIRECTION ( 'NONE',  ( -1.000000000000000000, -0.000000000000000000, -0.000000000000000000 ) ) ;
#87 = PERSON_AND_ORGANIZATION ( #348, #194 ) ;
#88 = ORIENTED_EDGE ( 'NONE', *, *, #228, .F. ) ;
#89 = CARTESIAN_POINT ( 'NONE',  ( -6.123233995736760366E-16, 0.000000000000000000, 0.000000000000000000 ) ) ;
#90 = EDGE_LOOP ( 'NONE', ( #181, #45, #39, #60 ) ) ;
#91 = VERTEX_POINT ( 'NONE', #130 ) ;
#92 = EDGE_CURVE ( 'NONE', #91, #206, #193, .T. ) ;
#93 = ORIENTED_EDGE ( 'NONE', *, *, #23, .F. ) ;
#94 = APPROVAL_DATE_TIME ( #359, #72 ) ;
#95 = ORIENTED_EDGE ( 'NONE', *, *, #285, .F. ) ;
#96 = UNCERTAINTY_MEASURE_WITH_UNIT (LENGTH_MEASURE( 1.000000000000000082E-05 ), #144, 'distance_accuracy_value', 'NONE');
#97 = CIRCLE ( 'NONE', #314, 8.750000000000017764 ) ;
#98 = DIRECTION ( 'NONE',  ( -0.9986295347545741663, 6.409306129323095417E-18, -0.05233595624293881088 ) ) ;
#99 = ORIENTED_EDGE ( 'NONE', *, *, #142, .T. ) ;
#100 = EDGE_CURVE ( 'NONE', #186, #213, #101, .T. ) ;
#101 = CIRCLE ( 'NONE', #346, 8.645184441433940492 ) ;
#102 = VECTOR ( 'NONE', #344, 1000.000000000000000 ) ;
#103 = EDGE_LOOP ( 'NONE', ( #150, #264, #298, #48 ) ) ;
#104 = CARTESIAN_POINT ( 'NONE',  ( 0.000000000000000000, 0.000000000000000000, 0.000000000000000000 ) ) ;
#105 = ADVANCED_FACE ( 'NONE', ( #185 ), #247, .T. ) ;
#106 = DIRECTION ( 'NONE',  ( 1.000000000000000000, 0.000000000000000000, 0.000000000000000000 ) ) ;
#107 = CARTESIAN_POINT ( 'NONE',  ( 0.000000000000000000, 0.000000000000000000, 5.000000000000000000 ) ) ;
#108 = DIRECTION ( 'NONE',  ( -1.000000000000000000, -0.000000000000000000, -0.000000000000000000 ) ) ;
#109 = LINE ( 'NONE', #320, #40 ) ;
#110 = APPLICATION_CONTEXT ( 'configuration controlled 3d designs of mechanical parts and assemblies' ) ;
#111 = DIRECTION ( 'NONE',  ( -1.000000000000000000, 0.000000000000000000, -0.000000000000000000 ) ) ;
#112 = AXIS2_PLACEMENT_3D ( 'NONE', #216, #340, #309 ) ;
#113 = CARTESIAN_POINT ( 'NONE',  ( 184.7000000000000171, 0.000000000000000000, 0.000000000000000000 ) ) ;
#114 = EDGE_CURVE ( 'NONE', #4, #353, #198, .T. ) ;
#115 = CARTESIAN_POINT ( 'NONE',  ( 0.000000000000000000, 0.000000000000000000, 0.000000000000000000 ) ) ;
#116 = DIRECTION ( 'NONE',  ( -1.000000000000000000, -0.000000000000000000, -0.000000000000000000 ) ) ;
#117 = ORIENTED_EDGE ( 'NONE', *, *, #100, .T. ) ;
#118 = VECTOR ( 'NONE', #257, 1000.000000000000000 ) ;
#119 = SHAPE_DEFINITION_REPRESENTATION ( #341, #170 ) ;
#120 = FACE_OUTER_BOUND ( 'NONE', #296, .T. ) ;
#121 = ORIENTED_EDGE ( 'NONE', *, *, #212, .T. ) ;
#122 = DATE_AND_TIME ( #151, #25 ) ;
#123 = EDGE_LOOP ( 'NONE', ( #148, #64, #276, #13 ) ) ;
#124 = COORDINATED_UNIVERSAL_TIME_OFFSET ( 1, 0, .AHEAD. ) ;
#125 = VERTEX_POINT ( 'NONE', #284 ) ;
#126 = CARTESIAN_POINT ( 'NONE',  ( 210.0000000000000284, 0.000000000000000000, 0.000000000000000000 ) ) ;
#127 = APPROVAL_ROLE ( '' ) ;
#128 = ADVANCED_FACE ( 'NONE', ( #20, #134 ), #364, .F. ) ;
#129 = CARTESIAN_POINT ( 'NONE',  ( -6.123233995736760366E-16, 0.000000000000000000, 0.000000000000000000 ) ) ;
#130 = CARTESIAN_POINT ( 'NONE',  ( -6.123233995736760366E-16, 0.000000000000000000, 9.999999999999998224 ) ) ;
#131 = CC_DESIGN_PERSON_AND_ORGANIZATION_ASSIGNMENT ( #263, #180, ( #81 ) ) ;
#132 = AXIS2_PLACEMENT_3D ( 'NONE', #333, #19, #218 ) ;
#133 = DIRECTION ( 'NONE',  ( 0.000000000000000000, 0.000000000000000000, 1.000000000000000000 ) ) ;
#134 = FACE_OUTER_BOUND ( 'NONE', #203, .T. ) ;
#135 = CIRCLE ( 'NONE', #214, 10.00000000000001954 ) ;
#136 = CARTESIAN_POINT ( 'NONE',  ( 0.000000000000000000, 6.123233995736766282E-16, -5.000000000000000000 ) ) ;
#137 = LINE ( 'NONE', #56, #229 ) ;
#138 = LOCAL_TIME ( 8, 21, 13.00000000000000000, #124 ) ;
#139 = DIRECTION ( 'NONE',  ( 0.000000000000000000, 0.000000000000000000, 1.000000000000000000 ) ) ;
#140 = CARTESIAN_POINT ( 'NONE',  ( 0.000000000000000000, 0.000000000000000000, 5.000000000000000000 ) ) ;
#141 = CYLINDRICAL_SURFACE ( 'NONE', #289, 5.000000000000000000 ) ;
#142 = EDGE_CURVE ( 'NONE', #213, #186, #70, .T. ) ;
#143 = COORDINATED_UNIVERSAL_TIME_OFFSET ( 1, 0, .AHEAD. ) ;
#144 =( LENGTH_UNIT ( ) NAMED_UNIT ( * ) SI_UNIT ( .MILLI., .METRE. ) );
#145 = CIRCLE ( 'NONE', #363, 5.000000000000000000 ) ;
#146 = CALENDAR_DATE ( 2024, 18, 11 ) ;
#147 = APPROVAL_DATE_TIME ( #122, #313 ) ;
#148 = ORIENTED_EDGE ( 'NONE', *, *, #171, .F. ) ;
#149 = AXIS2_PLACEMENT_3D ( 'NONE', #308, #183, #306 ) ;
#150 = ORIENTED_EDGE ( 'NONE', *, *, #261, .T. ) ;
#151 = CALENDAR_DATE ( 2024, 18, 11 ) ;
#152 = ORIENTED_EDGE ( 'NONE', *, *, #92, .T. ) ;
#153 = DATE_AND_TIME ( #233, #46 ) ;
#154 = ORIENTED_EDGE ( 'NONE', *, *, #67, .T. ) ;
#155 = COORDINATED_UNIVERSAL_TIME_OFFSET ( 1, 0, .AHEAD. ) ;
#156 = VERTEX_POINT ( 'NONE', #246 ) ;
#157 = ADVANCED_FACE ( 'NONE', ( #291 ), #332, .T. ) ;
#158 = LINE ( 'NONE', #248, #265 ) ;
#159 = CC_DESIGN_PERSON_AND_ORGANIZATION_ASSIGNMENT ( #330, #295, ( #81 ) ) ;
#160 = FACE_OUTER_BOUND ( 'NONE', #6, .T. ) ;
#161 = DIRECTION ( 'NONE',  ( -1.000000000000000000, -0.000000000000000000, -0.000000000000000000 ) ) ;
#162 = EDGE_CURVE ( 'NONE', #200, #33, #97, .T. ) ;
#163 = CIRCLE ( 'NONE', #210, 5.000000000000000000 ) ;
#164 = DIRECTION ( 'NONE',  ( 0.000000000000000000, 0.000000000000000000, 1.000000000000000000 ) ) ;
#165 = DIRECTION ( 'NONE',  ( 1.000000000000000000, 0.000000000000000000, 0.000000000000000000 ) ) ;
#166 = CARTESIAN_POINT ( 'NONE',  ( -6.123233995736760366E-16, 1.224646799147353651E-15, -9.999999999999998224 ) ) ;
#167 = DIRECTION ( 'NONE',  ( 0.000000000000000000, 0.000000000000000000, 1.000000000000000000 ) ) ;
#168 = DIRECTION ( 'NONE',  ( 0.000000000000000000, 0.000000000000000000, 1.000000000000000000 ) ) ;
#169 = FACE_OUTER_BOUND ( 'NONE', #179, .T. ) ;
#170 = ADVANCED_BREP_SHAPE_REPRESENTATION ( 'P01-Axe avec chanfrein', ( #274, #65 ), #299 ) ;
#171 = EDGE_CURVE ( 'NONE', #353, #241, #372, .T. ) ;
#172 = FACE_OUTER_BOUND ( 'NONE', #123, .T. ) ;
#173 = CC_DESIGN_APPROVAL ( #281, ( #342 ) ) ;
#174 = APPROVAL_ROLE ( '' ) ;
#175 = ORIENTED_EDGE ( 'NONE', *, *, #61, .F. ) ;
#176 = ORIENTED_EDGE ( 'NONE', *, *, #182, .T. ) ;
#177 = PERSON_AND_ORGANIZATION ( #348, #194 ) ;
#178 = VERTEX_POINT ( 'NONE', #107 ) ;
#179 = EDGE_LOOP ( 'NONE', ( #41, #8, #154, #79 ) ) ;
#180 = PERSON_AND_ORGANIZATION_ROLE ( 'design_supplier' ) ;
#181 = ORIENTED_EDGE ( 'NONE', *, *, #100, .F. ) ;
#182 = EDGE_CURVE ( 'NONE', #353, #4, #145, .T. ) ;
#183 = DIRECTION ( 'NONE',  ( -1.000000000000000000, -0.000000000000000000, -0.000000000000000000 ) ) ;
#184 = FACE_BOUND ( 'NONE', #331, .T. ) ;
#185 = FACE_OUTER_BOUND ( 'NONE', #300, .T. ) ;
#186 = VERTEX_POINT ( 'NONE', #195 ) ;
#187 = FACE_OUTER_BOUND ( 'NONE', #68, .T. ) ;
#188 = CARTESIAN_POINT ( 'NONE',  ( 0.000000000000000000, 0.000000000000000000, 0.000000000000000000 ) ) ;
#189 = AXIS2_PLACEMENT_3D ( 'NONE', #84, #111, #254 ) ;
#190 = ADVANCED_FACE ( 'NONE', ( #58, #28 ), #52, .F. ) ;
#191 = CARTESIAN_POINT ( 'NONE',  ( 0.000000000000000000, 0.000000000000000000, 0.000000000000000000 ) ) ;
#192 = CC_DESIGN_PERSON_AND_ORGANIZATION_ASSIGNMENT ( #66, #301, ( #339 ) ) ;
#193 = CIRCLE ( 'NONE', #36, 9.999999999999998224 ) ;
#194 = ORGANIZATION ( 'UNSPECIFIED', 'UNSPECIFIED', '' ) ;
#195 = CARTESIAN_POINT ( 'NONE',  ( 210.0000000000000284, 1.065147847338996995E-15, -8.645184441433940492 ) ) ;
#196 = EDGE_CURVE ( 'NONE', #33, #156, #109, .T. ) ;
#197 = CARTESIAN_POINT ( 'NONE',  ( 207.9999999999999147, 1.071565949253936293E-15, -8.750000000000017764 ) ) ;
#198 = CIRCLE ( 'NONE', #232, 5.000000000000000000 ) ;
#199 = DIRECTION ( 'NONE',  ( 0.000000000000000000, 0.000000000000000000, 1.000000000000000000 ) ) ;
#200 = VERTEX_POINT ( 'NONE', #197 ) ;
#201 = PERSON_AND_ORGANIZATION ( #348, #194 ) ;
#202 = COORDINATED_UNIVERSAL_TIME_OFFSET ( 1, 0, .AHEAD. ) ;
#203 = EDGE_LOOP ( 'NONE', ( #152, #10 ) ) ;
#204 = LOCAL_TIME ( 8, 21, 13.00000000000000000, #143 ) ;
#205 = DIRECTION ( 'NONE',  ( -0.9986295347545741663, 0.000000000000000000, 0.05233595624293881088 ) ) ;
#206 = VERTEX_POINT ( 'NONE', #166 ) ;
#207 = LINE ( 'NONE', #293, #366 ) ;
#208 = ORIENTED_EDGE ( 'NONE', *, *, #212, .F. ) ;
#209 = DIRECTION ( 'NONE',  ( -1.000000000000000000, -0.000000000000000000, -0.000000000000000000 ) ) ;
#210 = AXIS2_PLACEMENT_3D ( 'NONE', #104, #279, #310 ) ;
#211 = ORIENTED_EDGE ( 'NONE', *, *, #67, .F. ) ;
#212 = EDGE_CURVE ( 'NONE', #62, #206, #374, .T. ) ;
#213 = VERTEX_POINT ( 'NONE', #223 ) ;
#214 = AXIS2_PLACEMENT_3D ( 'NONE', #113, #83, #82 ) ;
#215 = AXIS2_PLACEMENT_3D ( 'NONE', #252, #106, #312 ) ;
#216 = CARTESIAN_POINT ( 'NONE',  ( 0.000000000000000000, 0.000000000000000000, 0.000000000000000000 ) ) ;
#217 = CC_DESIGN_DATE_AND_TIME_ASSIGNMENT ( #153, #59, ( #339 ) ) ;
#218 = DIRECTION ( 'NONE',  ( -0.000000000000000000, 0.000000000000000000, 1.000000000000000000 ) ) ;
#219 = AXIS2_PLACEMENT_3D ( 'NONE', #345, #379, #139 ) ;
#220 = DIRECTION ( 'NONE',  ( 0.000000000000000000, 0.000000000000000000, 1.000000000000000000 ) ) ;
#221 = FACE_OUTER_BOUND ( 'NONE', #358, .T. ) ;
#222 = ORIENTED_EDGE ( 'NONE', *, *, #361, .F. ) ;
#223 = CARTESIAN_POINT ( 'NONE',  ( 210.0000000000000284, 0.000000000000000000, 8.645184441433940492 ) ) ;
#224 = ADVANCED_FACE ( 'NONE', ( #172 ), #57, .F. ) ;
#225 = APPROVAL_PERSON_ORGANIZATION ( #177, #313, #297 ) ;
#226 = DIRECTION ( 'NONE',  ( 0.000000000000000000, 0.000000000000000000, 1.000000000000000000 ) ) ;
#227 = DIRECTION ( 'NONE',  ( -1.000000000000000000, -0.000000000000000000, -0.000000000000000000 ) ) ;
#228 = EDGE_CURVE ( 'NONE', #62, #268, #135, .T. ) ;
#229 = VECTOR ( 'NONE', #255, 1000.000000000000000 ) ;
#230 = DIRECTION ( 'NONE',  ( -1.000000000000000000, -0.000000000000000000, -0.000000000000000000 ) ) ;
#231 = CARTESIAN_POINT ( 'NONE',  ( 0.000000000000000000, 1.071565949253936293E-15, -8.750000000000017764 ) ) ;
#232 = AXIS2_PLACEMENT_3D ( 'NONE', #78, #49, #164 ) ;
#233 = CALENDAR_DATE ( 2024, 18, 11 ) ;
#234 = ORIENTED_EDGE ( 'NONE', *, *, #271, .T. ) ;
#235 = DIRECTION ( 'NONE',  ( 0.000000000000000000, 0.000000000000000000, 1.000000000000000000 ) ) ;
#236 = EDGE_LOOP ( 'NONE', ( #360, #211 ) ) ;
#237 = CC_DESIGN_APPROVAL ( #313, ( #339 ) ) ;
#238 = DIRECTION ( 'NONE',  ( 0.000000000000000000, 0.000000000000000000, 1.000000000000000000 ) ) ;
#239 = ORIENTED_EDGE ( 'NONE', *, *, #375, .T. ) ;
#240 = DIRECTION ( 'NONE',  ( -1.000000000000000000, -0.000000000000000000, -0.000000000000000000 ) ) ;
#241 = VERTEX_POINT ( 'NONE', #349 ) ;
#242 = ADVANCED_FACE ( 'NONE', ( #169 ), #141, .F. ) ;
#243 = CALENDAR_DATE ( 2024, 18, 11 ) ;
#244 = EDGE_LOOP ( 'NONE', ( #175, #88 ) ) ;
#245 = PRODUCT_RELATED_PRODUCT_CATEGORY ( 'detail', '', ( #283 ) ) ;
#246 = CARTESIAN_POINT ( 'NONE',  ( 184.7000000000000171, 0.000000000000000000, 8.750000000000015987 ) ) ;
#247 = CYLINDRICAL_SURFACE ( 'NONE', #21, 10.00000000000000888 ) ;
#248 = CARTESIAN_POINT ( 'NONE',  ( 207.9999999999999147, 1.071565949253936293E-15, -8.750000000000017764 ) ) ;
#249 = AXIS2_PLACEMENT_3D ( 'NONE', #2, #116, #238 ) ;
#250 = DIRECTION ( 'NONE',  ( 0.000000000000000000, 0.000000000000000000, 1.000000000000000000 ) ) ;
#251 = VECTOR ( 'NONE', #227, 1000.000000000000000 ) ;
#252 = CARTESIAN_POINT ( 'NONE',  ( -3.061616997868380183E-16, 9.999999999999998224, 0.000000000000000000 ) ) ;
#253 = EDGE_CURVE ( 'NONE', #178, #241, #335, .T. ) ;
#254 = DIRECTION ( 'NONE',  ( -0.000000000000000000, 0.000000000000000000, 1.000000000000000000 ) ) ;
#255 = DIRECTION ( 'NONE',  ( -1.000000000000000000, -0.000000000000000000, -0.000000000000000000 ) ) ;
#256 = LOCAL_TIME ( 8, 21, 13.00000000000000000, #155 ) ;
#257 = DIRECTION ( 'NONE',  ( -1.000000000000000000, -0.000000000000000000, -0.000000000000000000 ) ) ;
#258 = CYLINDRICAL_SURFACE ( 'NONE', #37, 8.750000000000017764 ) ;
#259 = CARTESIAN_POINT ( 'NONE',  ( 0.000000000000000000, 0.000000000000000000, 0.000000000000000000 ) ) ;
#260 = CARTESIAN_POINT ( 'NONE',  ( 210.0000000000000284, 6.123233995736766282E-16, -5.000000000000000000 ) ) ;
#261 = EDGE_CURVE ( 'NONE', #33, #200, #18, .T. ) ;
#262 = APPLICATION_CONTEXT ( 'configuration controlled 3d designs of mechanical parts and assemblies' ) ;
#263 = PERSON_AND_ORGANIZATION ( #348, #194 ) ;
#264 = ORIENTED_EDGE ( 'NONE', *, *, #285, .T. ) ;
#265 = VECTOR ( 'NONE', #98, 1000.000000000000000 ) ;
#266 = AXIS2_PLACEMENT_3D ( 'NONE', #259, #24, #226 ) ;
#267 = APPLICATION_PROTOCOL_DEFINITION ( 'international standard', 'config_control_design', 1994, #110 ) ;
#268 = VERTEX_POINT ( 'NONE', #319 ) ;
#269 =( NAMED_UNIT ( * ) SI_UNIT ( $, .STERADIAN. ) SOLID_ANGLE_UNIT ( ) );
#270 = ORIENTED_EDGE ( 'NONE', *, *, #61, .T. ) ;
#271 = EDGE_CURVE ( 'NONE', #268, #91, #137, .T. ) ;
#272 = PERSON_AND_ORGANIZATION ( #348, #194 ) ;
#273 = ORIENTED_EDGE ( 'NONE', *, *, #55, .F. ) ;
#274 = MANIFOLD_SOLID_BREP ( 'Chanfrein1', #53 ) ;
#275 = CALENDAR_DATE ( 2024, 18, 11 ) ;
#276 = ORIENTED_EDGE ( 'NONE', *, *, #294, .T. ) ;
#277 = APPROVAL_DATE_TIME ( #31, #281 ) ;
#278 = CARTESIAN_POINT ( 'NONE',  ( 207.9999999999999147, 0.000000000000000000, 8.750000000000017764 ) ) ;
#279 = DIRECTION ( 'NONE',  ( -1.000000000000000000, -0.000000000000000000, -0.000000000000000000 ) ) ;
#280 = CARTESIAN_POINT ( 'NONE',  ( 0.000000000000000000, 0.000000000000000000, 0.000000000000000000 ) ) ;
#281 = APPROVAL ( #324, 'UNSPECIFIED' ) ;
#282 = CIRCLE ( 'NONE', #328, 8.750000000000015987 ) ;
#283 = PRODUCT ( 'P01-Axe avec chanfrein', 'P01-Axe avec chanfrein', '', ( #3 ) ) ;
#284 = CARTESIAN_POINT ( 'NONE',  ( 184.7000000000000171, 1.071565949253936096E-15, -8.750000000000015987 ) ) ;
#285 = EDGE_CURVE ( 'NONE', #200, #125, #369, .T. ) ;
#286 = AXIS2_PLACEMENT_3D ( 'NONE', #50, #165, #287 ) ;
#287 = DIRECTION ( 'NONE',  ( 0.000000000000000000, 0.000000000000000000, 1.000000000000000000 ) ) ;
#288 = CARTESIAN_POINT ( 'NONE',  ( 0.000000000000000000, 1.224646799147354440E-15, -10.00000000000000888 ) ) ;
#289 = AXIS2_PLACEMENT_3D ( 'NONE', #188, #315, #168 ) ;
#290 = LINE ( 'NONE', #140, #118 ) ;
#291 = FACE_OUTER_BOUND ( 'NONE', #90, .T. ) ;
#292 = DIRECTION ( 'NONE',  ( 0.000000000000000000, 0.000000000000000000, 1.000000000000000000 ) ) ;
#293 = CARTESIAN_POINT ( 'NONE',  ( 207.9999999999999147, 0.000000000000000000, 8.750000000000017764 ) ) ;
#294 = EDGE_CURVE ( 'NONE', #4, #178, #290, .T. ) ;
#295 = PERSON_AND_ORGANIZATION_ROLE ( 'creator' ) ;
#296 = EDGE_LOOP ( 'NONE', ( #208, #355, #234, #222 ) ) ;
#297 = APPROVAL_ROLE ( '' ) ;
#298 = ORIENTED_EDGE ( 'NONE', *, *, #368, .F. ) ;
#299 =( GEOMETRIC_REPRESENTATION_CONTEXT ( 3 ) GLOBAL_UNCERTAINTY_ASSIGNED_CONTEXT ( ( #96 ) ) GLOBAL_UNIT_ASSIGNED_CONTEXT ( ( #144, #322, #269 ) ) REPRESENTATION_CONTEXT ( 'NONE', 'WORKASPACE' ) );
#300 = EDGE_LOOP ( 'NONE', ( #270, #121, #327, #323 ) ) ;
#301 = PERSON_AND_ORGANIZATION_ROLE ( 'creator' ) ;
#302 = ORIENTED_EDGE ( 'NONE', *, *, #196, .T. ) ;
#303 = VECTOR ( 'NONE', #108, 1000.000000000000000 ) ;
#304 = SECURITY_CLASSIFICATION_LEVEL ( 'unclassified' ) ;
#305 = ORIENTED_EDGE ( 'NONE', *, *, #162, .F. ) ;
#306 = DIRECTION ( 'NONE',  ( 0.000000000000000000, 0.000000000000000000, 1.000000000000000000 ) ) ;
#307 = APPROVAL_PERSON_ORGANIZATION ( #272, #72, #174 ) ;
#308 = CARTESIAN_POINT ( 'NONE',  ( 184.7000000000000171, 0.000000000000000000, 0.000000000000000000 ) ) ;
#309 = DIRECTION ( 'NONE',  ( 0.000000000000000000, 0.000000000000000000, 1.000000000000000000 ) ) ;
#310 = DIRECTION ( 'NONE',  ( 0.000000000000000000, 0.000000000000000000, 1.000000000000000000 ) ) ;
#311 = ADVANCED_FACE ( 'NONE', ( #27 ), #258, .T. ) ;
#312 = DIRECTION ( 'NONE',  ( 0.000000000000000000, 0.000000000000000000, -1.000000000000000000 ) ) ;
#313 = APPROVAL ( #7, 'UNSPECIFIED' ) ;
#314 = AXIS2_PLACEMENT_3D ( 'NONE', #321, #30, #292 ) ;
#315 = DIRECTION ( 'NONE',  ( -1.000000000000000000, -0.000000000000000000, -0.000000000000000000 ) ) ;
#316 = CARTESIAN_POINT ( 'NONE',  ( 210.0000000000000284, 0.000000000000000000, 0.000000000000000000 ) ) ;
#317 = AXIS2_PLACEMENT_3D ( 'NONE', #17, #337, #16 ) ;
#318 = AXIS2_PLACEMENT_3D ( 'NONE', #89, #209, #69 ) ;
#319 = CARTESIAN_POINT ( 'NONE',  ( 184.7000000000000171, 0.000000000000000000, 10.00000000000001954 ) ) ;
#320 = CARTESIAN_POINT ( 'NONE',  ( 0.000000000000000000, 0.000000000000000000, 8.750000000000017764 ) ) ;
#321 = CARTESIAN_POINT ( 'NONE',  ( 207.9999999999999147, 0.000000000000000000, 0.000000000000000000 ) ) ;
#322 =( NAMED_UNIT ( * ) PLANE_ANGLE_UNIT ( ) SI_UNIT ( $, .RADIAN. ) );
#323 = ORIENTED_EDGE ( 'NONE', *, *, #271, .F. ) ;
#324 = APPROVAL_STATUS ( 'not_yet_approved' ) ;
#325 = DIRECTION ( 'NONE',  ( 0.000000000000000000, 0.000000000000000000, 1.000000000000000000 ) ) ;
#326 = ORIENTED_EDGE ( 'NONE', *, *, #55, .T. ) ;
#327 = ORIENTED_EDGE ( 'NONE', *, *, #92, .F. ) ;
#328 = AXIS2_PLACEMENT_3D ( 'NONE', #73, #336, #367 ) ;
#329 = ORIENTED_EDGE ( 'NONE', *, *, #142, .F. ) ;
#330 = PERSON_AND_ORGANIZATION ( #348, #194 ) ;
#331 = EDGE_LOOP ( 'NONE', ( #44, #176 ) ) ;
#332 = CONICAL_SURFACE ( 'NONE', #370, 8.750000000000017764, 0.05235987755982485919 ) ;
#333 = CARTESIAN_POINT ( 'NONE',  ( 210.0000000000000284, 5.000000000000000000, 0.000000000000000000 ) ) ;
#334 = ADVANCED_FACE ( 'NONE', ( #120 ), #354, .T. ) ;
#335 = CIRCLE ( 'NONE', #266, 5.000000000000000000 ) ;
#336 = DIRECTION ( 'NONE',  ( -1.000000000000000000, -0.000000000000000000, -0.000000000000000000 ) ) ;
#337 = DIRECTION ( 'NONE',  ( -1.000000000000000000, -0.000000000000000000, -0.000000000000000000 ) ) ;
#338 = DIRECTION ( 'NONE',  ( -1.000000000000000000, -0.000000000000000000, -0.000000000000000000 ) ) ;
#339 = PRODUCT_DEFINITION ( 'UNKNOWN', '', #81, #12 ) ;
#340 = DIRECTION ( 'NONE',  ( -1.000000000000000000, -0.000000000000000000, -0.000000000000000000 ) ) ;
#341 = PRODUCT_DEFINITION_SHAPE ( 'NONE', 'NONE',  #339 ) ;
#342 = SECURITY_CLASSIFICATION ( '', '', #304 ) ;
#343 = DIRECTION ( 'NONE',  ( -1.000000000000000000, -0.000000000000000000, -0.000000000000000000 ) ) ;
#344 = DIRECTION ( 'NONE',  ( -1.000000000000000000, -0.000000000000000000, -0.000000000000000000 ) ) ;
#345 = CARTESIAN_POINT ( 'NONE',  ( 207.9999999999999147, 0.000000000000000000, 0.000000000000000000 ) ) ;
#346 = AXIS2_PLACEMENT_3D ( 'NONE', #126, #77, #133 ) ;
#347 = CIRCLE ( 'NONE', #318, 9.999999999999998224 ) ;
#348 = PERSON ( 'UNSPECIFIED', 'UNSPECIFIED', 'UNSPECIFIED', ('UNSPECIFIED'), ('UNSPECIFIED'), ('UNSPECIFIED') ) ;
#349 = CARTESIAN_POINT ( 'NONE',  ( 0.000000000000000000, 6.123233995736766282E-16, -5.000000000000000000 ) ) ;
#350 = CARTESIAN_POINT ( 'NONE',  ( 0.000000000000000000, 0.000000000000000000, 0.000000000000000000 ) ) ;
#351 = AXIS2_PLACEMENT_3D ( 'NONE', #191, #343, #167 ) ;
#352 = DATE_TIME_ROLE ( 'classification_date' ) ;
#353 = VERTEX_POINT ( 'NONE', #260 ) ;
#354 = CYLINDRICAL_SURFACE ( 'NONE', #54, 10.00000000000000888 ) ;
#355 = ORIENTED_EDGE ( 'NONE', *, *, #228, .T. ) ;
#356 = EDGE_LOOP ( 'NONE', ( #71, #326 ) ) ;
#357 = CARTESIAN_POINT ( 'NONE',  ( 0.000000000000000000, 0.000000000000000000, 0.000000000000000000 ) ) ;
#358 = EDGE_LOOP ( 'NONE', ( #93, #329, #239, #305 ) ) ;
#359 = DATE_AND_TIME ( #243, #138 ) ;
#360 = ORIENTED_EDGE ( 'NONE', *, *, #253, .F. ) ;
#361 = EDGE_CURVE ( 'NONE', #206, #91, #347, .T. ) ;
#362 = CYLINDRICAL_SURFACE ( 'NONE', #112, 8.750000000000017764 ) ;
#363 = AXIS2_PLACEMENT_3D ( 'NONE', #316, #230, #377 ) ;
#364 = PLANE ( 'NONE',  #215 ) ;
#365 = CONICAL_SURFACE ( 'NONE', #317, 8.750000000000017764, 0.05235987755982485919 ) ;
#366 = VECTOR ( 'NONE', #205, 1000.000000000000000 ) ;
#367 = DIRECTION ( 'NONE',  ( 0.000000000000000000, 0.000000000000000000, 1.000000000000000000 ) ) ;
#368 = EDGE_CURVE ( 'NONE', #156, #125, #74, .T. ) ;
#369 = LINE ( 'NONE', #231, #102 ) ;
#370 = AXIS2_PLACEMENT_3D ( 'NONE', #51, #376, #199 ) ;
#371 = CARTESIAN_POINT ( 'NONE',  ( 210.0000000000000284, 0.000000000000000000, 5.000000000000000000 ) ) ;
#372 = LINE ( 'NONE', #136, #303 ) ;
#373 = APPROVAL_PERSON_ORGANIZATION ( #201, #281, #127 ) ;
#374 = LINE ( 'NONE', #288, #251 ) ;
#375 = EDGE_CURVE ( 'NONE', #213, #33, #207, .T. ) ;
#376 = DIRECTION ( 'NONE',  ( -1.000000000000000000, -0.000000000000000000, -0.000000000000000000 ) ) ;
#377 = DIRECTION ( 'NONE',  ( 0.000000000000000000, 0.000000000000000000, 1.000000000000000000 ) ) ;
#378 = CIRCLE ( 'NONE', #149, 10.00000000000001954 ) ;
#379 = DIRECTION ( 'NONE',  ( -1.000000000000000000, -0.000000000000000000, -0.000000000000000000 ) ) ;
ENDSEC;
END-ISO-10303-21;
