ISO-10303-21;
HEADER;
/* Generated by software containing ST-Developer
 * from STEP Tools, Inc. (www.steptools.com) 
 */

FILE_DESCRIPTION(
/* description */ (''),
/* implementation_level */ '2;1');

FILE_NAME(
/* name */ 'AscenseurPlaqueCote v7.step',
/* time_stamp */ '2024-11-14T11:19:44+01:00',
/* author */ (''),
/* organization */ (''),
/* preprocessor_version */ 'ST-DEVELOPER v20',
/* originating_system */ 'Autodesk Translation Framework v13.20.0.188',

/* authorisation */ '');

FILE_SCHEMA (('AUTOMOTIVE_DESIGN { 1 0 10303 214 3 1 1 }'));
ENDSEC;

DATA;
#10=MECHANICAL_DESIGN_GEOMETRIC_PRESENTATION_REPRESENTATION('',(#13),#391);
#11=SHAPE_REPRESENTATION_RELATIONSHIP('SRR','None',#398,#12);
#12=ADVANCED_BREP_SHAPE_REPRESENTATION('',(#14),#390);
#13=STYLED_ITEM('',(#407),#14);
#14=MANIFOLD_SOLID_BREP('Corps1',#223);
#15=PLANE('',#243);
#16=PLANE('',#249);
#17=PLANE('',#254);
#18=PLANE('',#255);
#19=PLANE('',#256);
#20=PLANE('',#257);
#21=PLANE('',#258);
#22=FACE_OUTER_BOUND('',#34,.T.);
#23=FACE_OUTER_BOUND('',#35,.T.);
#24=FACE_OUTER_BOUND('',#36,.T.);
#25=FACE_OUTER_BOUND('',#37,.T.);
#26=FACE_OUTER_BOUND('',#38,.T.);
#27=FACE_OUTER_BOUND('',#39,.T.);
#28=FACE_OUTER_BOUND('',#40,.T.);
#29=FACE_OUTER_BOUND('',#41,.T.);
#30=FACE_OUTER_BOUND('',#42,.T.);
#31=FACE_OUTER_BOUND('',#43,.T.);
#32=FACE_OUTER_BOUND('',#44,.T.);
#33=FACE_OUTER_BOUND('',#45,.T.);
#34=EDGE_LOOP('',(#146,#147,#148,#149));
#35=EDGE_LOOP('',(#150,#151,#152,#153));
#36=EDGE_LOOP('',(#154,#155,#156,#157,#158,#159,#160,#161,#162,#163));
#37=EDGE_LOOP('',(#164,#165,#166,#167));
#38=EDGE_LOOP('',(#168,#169,#170,#171,#172,#173,#174,#175,#176,#177));
#39=EDGE_LOOP('',(#178,#179,#180,#181));
#40=EDGE_LOOP('',(#182,#183,#184,#185));
#41=EDGE_LOOP('',(#186,#187,#188,#189));
#42=EDGE_LOOP('',(#190,#191,#192,#193));
#43=EDGE_LOOP('',(#194,#195,#196,#197));
#44=EDGE_LOOP('',(#198,#199,#200,#201));
#45=EDGE_LOOP('',(#202,#203,#204,#205));
#46=LINE('',#331,#66);
#47=LINE('',#334,#67);
#48=LINE('',#339,#68);
#49=LINE('',#343,#69);
#50=LINE('',#345,#70);
#51=LINE('',#347,#71);
#52=LINE('',#349,#72);
#53=LINE('',#351,#73);
#54=LINE('',#359,#74);
#55=LINE('',#367,#75);
#56=LINE('',#369,#76);
#57=LINE('',#371,#77);
#58=LINE('',#373,#78);
#59=LINE('',#374,#79);
#60=LINE('',#376,#80);
#61=LINE('',#378,#81);
#62=LINE('',#380,#82);
#63=LINE('',#381,#83);
#64=LINE('',#383,#84);
#65=LINE('',#385,#85);
#66=VECTOR('',#265,10.);
#67=VECTOR('',#268,10.);
#68=VECTOR('',#273,5.00000000000001);
#69=VECTOR('',#278,10.);
#70=VECTOR('',#279,10.);
#71=VECTOR('',#280,10.);
#72=VECTOR('',#281,10.);
#73=VECTOR('',#282,10.);
#74=VECTOR('',#291,5.00000000000001);
#75=VECTOR('',#300,10.);
#76=VECTOR('',#301,10.);
#77=VECTOR('',#302,10.);
#78=VECTOR('',#303,10.);
#79=VECTOR('',#304,10.);
#80=VECTOR('',#307,10.);
#81=VECTOR('',#310,10.);
#82=VECTOR('',#313,10.);
#83=VECTOR('',#314,10.);
#84=VECTOR('',#317,10.);
#85=VECTOR('',#320,10.);
#86=CIRCLE('',#238,5.);
#87=CIRCLE('',#239,5.);
#88=CIRCLE('',#241,40.);
#89=CIRCLE('',#242,40.);
#90=CIRCLE('',#244,5.);
#91=CIRCLE('',#245,40.);
#92=CIRCLE('',#246,5.00000000000001);
#93=CIRCLE('',#248,5.00000000000001);
#94=CIRCLE('',#250,40.);
#95=CIRCLE('',#251,5.);
#96=VERTEX_POINT('',#327);
#97=VERTEX_POINT('',#328);
#98=VERTEX_POINT('',#330);
#99=VERTEX_POINT('',#332);
#100=VERTEX_POINT('',#336);
#101=VERTEX_POINT('',#338);
#102=VERTEX_POINT('',#342);
#103=VERTEX_POINT('',#344);
#104=VERTEX_POINT('',#346);
#105=VERTEX_POINT('',#348);
#106=VERTEX_POINT('',#350);
#107=VERTEX_POINT('',#352);
#108=VERTEX_POINT('',#354);
#109=VERTEX_POINT('',#358);
#110=VERTEX_POINT('',#362);
#111=VERTEX_POINT('',#364);
#112=VERTEX_POINT('',#366);
#113=VERTEX_POINT('',#368);
#114=VERTEX_POINT('',#370);
#115=VERTEX_POINT('',#372);
#116=EDGE_CURVE('',#96,#97,#86,.T.);
#117=EDGE_CURVE('',#97,#98,#46,.T.);
#118=EDGE_CURVE('',#98,#99,#87,.T.);
#119=EDGE_CURVE('',#99,#96,#47,.T.);
#120=EDGE_CURVE('',#100,#99,#88,.T.);
#121=EDGE_CURVE('',#101,#100,#48,.T.);
#122=EDGE_CURVE('',#96,#101,#89,.T.);
#123=EDGE_CURVE('',#98,#102,#49,.T.);
#124=EDGE_CURVE('',#102,#103,#50,.T.);
#125=EDGE_CURVE('',#104,#103,#51,.T.);
#126=EDGE_CURVE('',#105,#104,#52,.T.);
#127=EDGE_CURVE('',#105,#106,#53,.T.);
#128=EDGE_CURVE('',#107,#106,#90,.T.);
#129=EDGE_CURVE('',#107,#108,#91,.T.);
#130=EDGE_CURVE('',#100,#108,#92,.T.);
#131=EDGE_CURVE('',#108,#109,#54,.T.);
#132=EDGE_CURVE('',#109,#101,#93,.T.);
#133=EDGE_CURVE('',#109,#110,#94,.T.);
#134=EDGE_CURVE('',#111,#110,#95,.T.);
#135=EDGE_CURVE('',#111,#112,#55,.T.);
#136=EDGE_CURVE('',#112,#113,#56,.T.);
#137=EDGE_CURVE('',#113,#114,#57,.T.);
#138=EDGE_CURVE('',#114,#115,#58,.T.);
#139=EDGE_CURVE('',#115,#97,#59,.T.);
#140=EDGE_CURVE('',#110,#107,#60,.T.);
#141=EDGE_CURVE('',#106,#111,#61,.T.);
#142=EDGE_CURVE('',#102,#115,#62,.T.);
#143=EDGE_CURVE('',#103,#114,#63,.T.);
#144=EDGE_CURVE('',#104,#113,#64,.T.);
#145=EDGE_CURVE('',#105,#112,#65,.T.);
#146=ORIENTED_EDGE('',*,*,#116,.T.);
#147=ORIENTED_EDGE('',*,*,#117,.T.);
#148=ORIENTED_EDGE('',*,*,#118,.T.);
#149=ORIENTED_EDGE('',*,*,#119,.T.);
#150=ORIENTED_EDGE('',*,*,#119,.F.);
#151=ORIENTED_EDGE('',*,*,#120,.F.);
#152=ORIENTED_EDGE('',*,*,#121,.F.);
#153=ORIENTED_EDGE('',*,*,#122,.F.);
#154=ORIENTED_EDGE('',*,*,#118,.F.);
#155=ORIENTED_EDGE('',*,*,#123,.T.);
#156=ORIENTED_EDGE('',*,*,#124,.T.);
#157=ORIENTED_EDGE('',*,*,#125,.F.);
#158=ORIENTED_EDGE('',*,*,#126,.F.);
#159=ORIENTED_EDGE('',*,*,#127,.T.);
#160=ORIENTED_EDGE('',*,*,#128,.F.);
#161=ORIENTED_EDGE('',*,*,#129,.T.);
#162=ORIENTED_EDGE('',*,*,#130,.F.);
#163=ORIENTED_EDGE('',*,*,#120,.T.);
#164=ORIENTED_EDGE('',*,*,#130,.T.);
#165=ORIENTED_EDGE('',*,*,#131,.T.);
#166=ORIENTED_EDGE('',*,*,#132,.T.);
#167=ORIENTED_EDGE('',*,*,#121,.T.);
#168=ORIENTED_EDGE('',*,*,#116,.F.);
#169=ORIENTED_EDGE('',*,*,#122,.T.);
#170=ORIENTED_EDGE('',*,*,#132,.F.);
#171=ORIENTED_EDGE('',*,*,#133,.T.);
#172=ORIENTED_EDGE('',*,*,#134,.F.);
#173=ORIENTED_EDGE('',*,*,#135,.T.);
#174=ORIENTED_EDGE('',*,*,#136,.T.);
#175=ORIENTED_EDGE('',*,*,#137,.T.);
#176=ORIENTED_EDGE('',*,*,#138,.T.);
#177=ORIENTED_EDGE('',*,*,#139,.T.);
#178=ORIENTED_EDGE('',*,*,#131,.F.);
#179=ORIENTED_EDGE('',*,*,#129,.F.);
#180=ORIENTED_EDGE('',*,*,#140,.F.);
#181=ORIENTED_EDGE('',*,*,#133,.F.);
#182=ORIENTED_EDGE('',*,*,#134,.T.);
#183=ORIENTED_EDGE('',*,*,#140,.T.);
#184=ORIENTED_EDGE('',*,*,#128,.T.);
#185=ORIENTED_EDGE('',*,*,#141,.T.);
#186=ORIENTED_EDGE('',*,*,#124,.F.);
#187=ORIENTED_EDGE('',*,*,#142,.T.);
#188=ORIENTED_EDGE('',*,*,#138,.F.);
#189=ORIENTED_EDGE('',*,*,#143,.F.);
#190=ORIENTED_EDGE('',*,*,#125,.T.);
#191=ORIENTED_EDGE('',*,*,#143,.T.);
#192=ORIENTED_EDGE('',*,*,#137,.F.);
#193=ORIENTED_EDGE('',*,*,#144,.F.);
#194=ORIENTED_EDGE('',*,*,#126,.T.);
#195=ORIENTED_EDGE('',*,*,#144,.T.);
#196=ORIENTED_EDGE('',*,*,#136,.F.);
#197=ORIENTED_EDGE('',*,*,#145,.F.);
#198=ORIENTED_EDGE('',*,*,#141,.F.);
#199=ORIENTED_EDGE('',*,*,#127,.F.);
#200=ORIENTED_EDGE('',*,*,#145,.T.);
#201=ORIENTED_EDGE('',*,*,#135,.F.);
#202=ORIENTED_EDGE('',*,*,#117,.F.);
#203=ORIENTED_EDGE('',*,*,#139,.F.);
#204=ORIENTED_EDGE('',*,*,#142,.F.);
#205=ORIENTED_EDGE('',*,*,#123,.F.);
#206=CYLINDRICAL_SURFACE('',#237,5.);
#207=CYLINDRICAL_SURFACE('',#240,40.);
#208=CYLINDRICAL_SURFACE('',#247,5.00000000000001);
#209=CYLINDRICAL_SURFACE('',#252,40.);
#210=CYLINDRICAL_SURFACE('',#253,5.);
#211=ADVANCED_FACE('',(#22),#206,.T.);
#212=ADVANCED_FACE('',(#23),#207,.F.);
#213=ADVANCED_FACE('',(#24),#15,.F.);
#214=ADVANCED_FACE('',(#25),#208,.T.);
#215=ADVANCED_FACE('',(#26),#16,.T.);
#216=ADVANCED_FACE('',(#27),#209,.F.);
#217=ADVANCED_FACE('',(#28),#210,.T.);
#218=ADVANCED_FACE('',(#29),#17,.T.);
#219=ADVANCED_FACE('',(#30),#18,.T.);
#220=ADVANCED_FACE('',(#31),#19,.T.);
#221=ADVANCED_FACE('',(#32),#20,.T.);
#222=ADVANCED_FACE('',(#33),#21,.T.);
#223=CLOSED_SHELL('',(#211,#212,#213,#214,#215,#216,#217,#218,#219,#220,
#221,#222));
#224=DERIVED_UNIT_ELEMENT(#226,1.);
#225=DERIVED_UNIT_ELEMENT(#393,-3.);
#226=(
MASS_UNIT()
NAMED_UNIT(*)
SI_UNIT(.KILO.,.GRAM.)
);
#227=DERIVED_UNIT((#224,#225));
#228=MEASURE_REPRESENTATION_ITEM('density measure',
POSITIVE_RATIO_MEASURE(7850.),#227);
#229=PROPERTY_DEFINITION_REPRESENTATION(#234,#231);
#230=PROPERTY_DEFINITION_REPRESENTATION(#235,#232);
#231=REPRESENTATION('material name',(#233),#390);
#232=REPRESENTATION('density',(#228),#390);
#233=DESCRIPTIVE_REPRESENTATION_ITEM('Acier','Acier');
#234=PROPERTY_DEFINITION('material property','material name',#400);
#235=PROPERTY_DEFINITION('material property','density of part',#400);
#236=AXIS2_PLACEMENT_3D('',#325,#259,#260);
#237=AXIS2_PLACEMENT_3D('',#326,#261,#262);
#238=AXIS2_PLACEMENT_3D('',#329,#263,#264);
#239=AXIS2_PLACEMENT_3D('',#333,#266,#267);
#240=AXIS2_PLACEMENT_3D('',#335,#269,#270);
#241=AXIS2_PLACEMENT_3D('',#337,#271,#272);
#242=AXIS2_PLACEMENT_3D('',#340,#274,#275);
#243=AXIS2_PLACEMENT_3D('',#341,#276,#277);
#244=AXIS2_PLACEMENT_3D('',#353,#283,#284);
#245=AXIS2_PLACEMENT_3D('',#355,#285,#286);
#246=AXIS2_PLACEMENT_3D('',#356,#287,#288);
#247=AXIS2_PLACEMENT_3D('',#357,#289,#290);
#248=AXIS2_PLACEMENT_3D('',#360,#292,#293);
#249=AXIS2_PLACEMENT_3D('',#361,#294,#295);
#250=AXIS2_PLACEMENT_3D('',#363,#296,#297);
#251=AXIS2_PLACEMENT_3D('',#365,#298,#299);
#252=AXIS2_PLACEMENT_3D('',#375,#305,#306);
#253=AXIS2_PLACEMENT_3D('',#377,#308,#309);
#254=AXIS2_PLACEMENT_3D('',#379,#311,#312);
#255=AXIS2_PLACEMENT_3D('',#382,#315,#316);
#256=AXIS2_PLACEMENT_3D('',#384,#318,#319);
#257=AXIS2_PLACEMENT_3D('',#386,#321,#322);
#258=AXIS2_PLACEMENT_3D('',#387,#323,#324);
#259=DIRECTION('axis',(0.,0.,1.));
#260=DIRECTION('refdir',(1.,0.,0.));
#261=DIRECTION('center_axis',(0.,0.,1.));
#262=DIRECTION('ref_axis',(-0.666666666666663,0.745355992499933,0.));
#263=DIRECTION('center_axis',(0.,0.,-1.));
#264=DIRECTION('ref_axis',(-0.666666666666663,0.745355992499933,0.));
#265=DIRECTION('',(0.,0.,-1.));
#266=DIRECTION('center_axis',(0.,0.,1.));
#267=DIRECTION('ref_axis',(-0.666666666666663,0.745355992499933,0.));
#268=DIRECTION('',(0.,0.,1.));
#269=DIRECTION('center_axis',(0.,0.,1.));
#270=DIRECTION('ref_axis',(1.,0.,0.));
#271=DIRECTION('center_axis',(0.,0.,1.));
#272=DIRECTION('ref_axis',(1.,0.,0.));
#273=DIRECTION('',(0.,0.,-1.));
#274=DIRECTION('center_axis',(0.,0.,-1.));
#275=DIRECTION('ref_axis',(1.,0.,0.));
#276=DIRECTION('center_axis',(0.,0.,1.));
#277=DIRECTION('ref_axis',(1.,0.,0.));
#278=DIRECTION('',(1.,-1.24344978758018E-14,0.));
#279=DIRECTION('',(0.,-1.,0.));
#280=DIRECTION('',(1.,-2.53765262771464E-17,0.));
#281=DIRECTION('',(0.,-1.,0.));
#282=DIRECTION('',(1.,0.,0.));
#283=DIRECTION('center_axis',(0.,0.,1.));
#284=DIRECTION('ref_axis',(0.666666666666667,0.74535599249993,0.));
#285=DIRECTION('center_axis',(0.,0.,1.));
#286=DIRECTION('ref_axis',(1.,0.,0.));
#287=DIRECTION('center_axis',(0.,0.,1.));
#288=DIRECTION('ref_axis',(-0.944444444444445,-0.328671099061089,0.));
#289=DIRECTION('center_axis',(0.,0.,1.));
#290=DIRECTION('ref_axis',(-0.944444444444445,-0.328671099061089,0.));
#291=DIRECTION('',(0.,0.,1.));
#292=DIRECTION('center_axis',(0.,0.,-1.));
#293=DIRECTION('ref_axis',(-0.944444444444445,-0.328671099061089,0.));
#294=DIRECTION('center_axis',(0.,0.,1.));
#295=DIRECTION('ref_axis',(1.,0.,0.));
#296=DIRECTION('center_axis',(0.,0.,-1.));
#297=DIRECTION('ref_axis',(1.,0.,0.));
#298=DIRECTION('center_axis',(0.,0.,-1.));
#299=DIRECTION('ref_axis',(0.666666666666667,0.74535599249993,0.));
#300=DIRECTION('',(-1.,0.,0.));
#301=DIRECTION('',(0.,-1.,0.));
#302=DIRECTION('',(1.,-2.53765262771464E-17,0.));
#303=DIRECTION('',(0.,1.,0.));
#304=DIRECTION('',(-1.,1.24344978758018E-14,0.));
#305=DIRECTION('center_axis',(0.,0.,1.));
#306=DIRECTION('ref_axis',(1.,0.,0.));
#307=DIRECTION('',(0.,0.,-1.));
#308=DIRECTION('center_axis',(0.,0.,1.));
#309=DIRECTION('ref_axis',(0.666666666666667,0.74535599249993,0.));
#310=DIRECTION('',(0.,0.,1.));
#311=DIRECTION('center_axis',(1.,0.,0.));
#312=DIRECTION('ref_axis',(0.,1.,0.));
#313=DIRECTION('',(0.,0.,1.));
#314=DIRECTION('',(0.,0.,1.));
#315=DIRECTION('center_axis',(-2.53765262771464E-17,-1.,0.));
#316=DIRECTION('ref_axis',(1.,-2.53765262771464E-17,0.));
#317=DIRECTION('',(0.,0.,1.));
#318=DIRECTION('center_axis',(-1.,0.,0.));
#319=DIRECTION('ref_axis',(0.,-1.,0.));
#320=DIRECTION('',(0.,0.,1.));
#321=DIRECTION('center_axis',(0.,1.,0.));
#322=DIRECTION('ref_axis',(-1.,0.,0.));
#323=DIRECTION('center_axis',(1.24344978758018E-14,1.,0.));
#324=DIRECTION('ref_axis',(-1.,1.24344978758018E-14,0.));
#325=CARTESIAN_POINT('',(0.,0.,0.));
#326=CARTESIAN_POINT('Origin',(179.721359549996,55.,0.));
#327=CARTESIAN_POINT('',(174.752319599996,55.5555555555555,3.));
#328=CARTESIAN_POINT('',(179.721359549996,60.,3.));
#329=CARTESIAN_POINT('Origin',(179.721359549996,55.,3.));
#330=CARTESIAN_POINT('',(179.721359549996,60.,0.));
#331=CARTESIAN_POINT('',(179.721359549996,60.,0.));
#332=CARTESIAN_POINT('',(174.752319599996,55.5555555555555,0.));
#333=CARTESIAN_POINT('Origin',(179.721359549996,55.,0.));
#334=CARTESIAN_POINT('',(174.752319599996,55.5555555555555,0.));
#335=CARTESIAN_POINT('Origin',(135.,59.9999999999999,0.));
#336=CARTESIAN_POINT('',(97.2222222222222,46.8531560375564,0.));
#337=CARTESIAN_POINT('Origin',(135.,59.9999999999999,0.));
#338=CARTESIAN_POINT('',(97.2222222222222,46.8531560375564,3.));
#339=CARTESIAN_POINT('',(97.2222222222222,46.8531560375564,0.));
#340=CARTESIAN_POINT('Origin',(135.,59.9999999999999,3.));
#341=CARTESIAN_POINT('Origin',(92.5,50.,0.));
#342=CARTESIAN_POINT('',(180.,60.,0.));
#343=CARTESIAN_POINT('',(175.,60.0000000000001,0.));
#344=CARTESIAN_POINT('',(180.,0.,0.));
#345=CARTESIAN_POINT('',(180.,60.,0.));
#346=CARTESIAN_POINT('',(5.,0.,0.));
#347=CARTESIAN_POINT('',(5.,0.,0.));
#348=CARTESIAN_POINT('',(5.,60.,0.));
#349=CARTESIAN_POINT('',(5.,60.,0.));
#350=CARTESIAN_POINT('',(5.2786404500042,60.,0.));
#351=CARTESIAN_POINT('',(5.,60.,0.));
#352=CARTESIAN_POINT('',(10.2476804000037,55.5555555555555,0.));
#353=CARTESIAN_POINT('Origin',(5.2786404500042,55.,0.));
#354=CARTESIAN_POINT('',(87.7777777777778,46.8531560375564,0.));
#355=CARTESIAN_POINT('Origin',(50.,60.,0.));
#356=CARTESIAN_POINT('Origin',(92.5,45.2098005422509,0.));
#357=CARTESIAN_POINT('Origin',(92.5,45.2098005422509,0.));
#358=CARTESIAN_POINT('',(87.7777777777778,46.8531560375564,3.));
#359=CARTESIAN_POINT('',(87.7777777777777,46.8531560375564,0.));
#360=CARTESIAN_POINT('Origin',(92.5,45.2098005422509,3.));
#361=CARTESIAN_POINT('Origin',(92.5,50.,3.));
#362=CARTESIAN_POINT('',(10.2476804000037,55.5555555555555,3.));
#363=CARTESIAN_POINT('Origin',(50.,60.,3.));
#364=CARTESIAN_POINT('',(5.2786404500042,60.,3.));
#365=CARTESIAN_POINT('Origin',(5.2786404500042,55.,3.));
#366=CARTESIAN_POINT('',(5.,60.,3.));
#367=CARTESIAN_POINT('',(5.,60.,3.));
#368=CARTESIAN_POINT('',(5.,0.,3.));
#369=CARTESIAN_POINT('',(5.,60.,3.));
#370=CARTESIAN_POINT('',(180.,0.,3.));
#371=CARTESIAN_POINT('',(5.,0.,3.));
#372=CARTESIAN_POINT('',(180.,60.,3.));
#373=CARTESIAN_POINT('',(180.,60.,3.));
#374=CARTESIAN_POINT('',(175.,60.0000000000001,3.));
#375=CARTESIAN_POINT('Origin',(50.,60.,0.));
#376=CARTESIAN_POINT('',(10.2476804000037,55.5555555555555,0.));
#377=CARTESIAN_POINT('Origin',(5.2786404500042,55.,0.));
#378=CARTESIAN_POINT('',(5.2786404500042,60.,0.));
#379=CARTESIAN_POINT('Origin',(180.,0.,0.));
#380=CARTESIAN_POINT('',(180.,60.,0.));
#381=CARTESIAN_POINT('',(180.,0.,0.));
#382=CARTESIAN_POINT('Origin',(5.,0.,0.));
#383=CARTESIAN_POINT('',(5.,0.,0.));
#384=CARTESIAN_POINT('Origin',(5.,60.,0.));
#385=CARTESIAN_POINT('',(5.,60.,0.));
#386=CARTESIAN_POINT('Origin',(10.,60.,0.));
#387=CARTESIAN_POINT('Origin',(180.,60.,0.));
#388=UNCERTAINTY_MEASURE_WITH_UNIT(LENGTH_MEASURE(0.01),#392,
'DISTANCE_ACCURACY_VALUE',
'Maximum model space distance between geometric entities at asserted c
onnectivities');
#389=UNCERTAINTY_MEASURE_WITH_UNIT(LENGTH_MEASURE(0.01),#392,
'DISTANCE_ACCURACY_VALUE',
'Maximum model space distance between geometric entities at asserted c
onnectivities');
#390=(
GEOMETRIC_REPRESENTATION_CONTEXT(3)
GLOBAL_UNCERTAINTY_ASSIGNED_CONTEXT((#388))
GLOBAL_UNIT_ASSIGNED_CONTEXT((#392,#394,#395))
REPRESENTATION_CONTEXT('','3D')
);
#391=(
GEOMETRIC_REPRESENTATION_CONTEXT(3)
GLOBAL_UNCERTAINTY_ASSIGNED_CONTEXT((#389))
GLOBAL_UNIT_ASSIGNED_CONTEXT((#392,#394,#395))
REPRESENTATION_CONTEXT('','3D')
);
#392=(
LENGTH_UNIT()
NAMED_UNIT(*)
SI_UNIT(.MILLI.,.METRE.)
);
#393=(
LENGTH_UNIT()
NAMED_UNIT(*)
SI_UNIT($,.METRE.)
);
#394=(
NAMED_UNIT(*)
PLANE_ANGLE_UNIT()
SI_UNIT($,.RADIAN.)
);
#395=(
NAMED_UNIT(*)
SI_UNIT($,.STERADIAN.)
SOLID_ANGLE_UNIT()
);
#396=SHAPE_DEFINITION_REPRESENTATION(#397,#398);
#397=PRODUCT_DEFINITION_SHAPE('',$,#400);
#398=SHAPE_REPRESENTATION('',(#236),#390);
#399=PRODUCT_DEFINITION_CONTEXT('part definition',#404,'design');
#400=PRODUCT_DEFINITION('AscenseurPlaqueCote','AscenseurPlaqueCote v7',
#401,#399);
#401=PRODUCT_DEFINITION_FORMATION('',$,#406);
#402=PRODUCT_RELATED_PRODUCT_CATEGORY('AscenseurPlaqueCote v7',
'AscenseurPlaqueCote v7',(#406));
#403=APPLICATION_PROTOCOL_DEFINITION('international standard',
'automotive_design',2009,#404);
#404=APPLICATION_CONTEXT(
'Core Data for Automotive Mechanical Design Process');
#405=PRODUCT_CONTEXT('part definition',#404,'mechanical');
#406=PRODUCT('AscenseurPlaqueCote','AscenseurPlaqueCote v7',$,(#405));
#407=PRESENTATION_STYLE_ASSIGNMENT((#408));
#408=SURFACE_STYLE_USAGE(.BOTH.,#409);
#409=SURFACE_SIDE_STYLE('',(#410));
#410=SURFACE_STYLE_FILL_AREA(#411);
#411=FILL_AREA_STYLE('Acier - Satin\X\E9',(#412));
#412=FILL_AREA_STYLE_COLOUR('Acier - Satin\X\E9',#413);
#413=COLOUR_RGB('Acier - Satin\X\E9',0.627450980392157,0.627450980392157,
0.627450980392157);
ENDSEC;
END-ISO-10303-21;
