ISO-10303-21;
HEADER;
FILE_DESCRIPTION (( 'STEP AP214' ),
    '1' );
FILE_NAME ('CYC-033.step',
    '2024-04-03T09:41:27',
    ( '' ),
    ( '' ),
    'SwSTEP 2.0',
    'SolidWorks 2024',
    '' );
FILE_SCHEMA (( 'AUTOMOTIVE_DESIGN' ));
ENDSEC;

DATA;
#1 = PRODUCT_CONTEXT ( 'NONE', #250, 'mechanical' ) ;
#2 = DIRECTION ( 'NONE',  ( -0.4067366430757988205, 0.9135454576426017548, -0.000000000000000000 ) ) ;
#3 = CARTESIAN_POINT ( 'NONE',  ( 307.8688502839142984, 849.5928351054345740, 0.000000000000000000 ) ) ;
#4 = APPLICATION_PROTOCOL_DEFINITION ( 'draft international standard', 'automotive_design', 1998, #250 ) ;
#5 = ORIENTED_EDGE ( 'NONE', *, *, #145, .T. ) ;
#6 = VERTEX_POINT ( 'NONE', #163 ) ;
#7 = FACE_OUTER_BOUND ( 'NONE', #107, .T. ) ;
#8 = ORIENTED_EDGE ( 'NONE', *, *, #240, .F. ) ;
#9 = EDGE_CURVE ( 'NONE', #169, #57, #213, .T. ) ;
#10 = FILL_AREA_STYLE ('',( #175 ) ) ;
#11 = DIRECTION ( 'NONE',  ( -0.4067366430757988205, 0.9135454576426017548, -0.000000000000000000 ) ) ;
#12 = VECTOR ( 'NONE', #132, 1000.000000000000227 ) ;
#13 = VECTOR ( 'NONE', #21, 1000.000000000000227 ) ;
#14 = ORIENTED_EDGE ( 'NONE', *, *, #25, .T. ) ;
#15 = CARTESIAN_POINT ( 'NONE',  ( 317.9504511522746952, 850.7975441703415527, 1.187907395172887234E-15 ) ) ;
#16 = ORIENTED_EDGE ( 'NONE', *, *, #37, .F. ) ;
#17 = CARTESIAN_POINT ( 'NONE',  ( 304.8183254608459265, 856.4444260377538285, 0.000000000000000000 ) ) ;
#18 = CARTESIAN_POINT ( 'NONE',  ( 313.4970073084502360, 860.3084241469738345, 1.163414459189939928E-15 ) ) ;
#19 = AXIS2_PLACEMENT_3D ( 'NONE', #317, #40, #143 ) ;
#20 = CARTESIAN_POINT ( 'NONE',  ( 309.0077128845266543, 847.0349078240350309, 0.000000000000000000 ) ) ;
#21 = DIRECTION ( 'NONE',  ( -0.4067366430757987650, 0.9135454576426015327, -0.000000000000000000 ) ) ;
#22 = DIRECTION ( 'NONE',  ( -0.9135454576426039752, -0.4067366430757934914, 0.000000000000000000 ) ) ;
#23 = PRODUCT ( 'CYC-033', 'CYC-033', '', ( #1 ) ) ;
#24 = CARTESIAN_POINT ( 'NONE',  ( 307.8688502839142984, 849.5928351054345740, 0.000000000000000000 ) ) ;
#25 = EDGE_CURVE ( 'NONE', #61, #43, #331, .T. ) ;
#26 = CYLINDRICAL_SURFACE ( 'NONE', #111, 12.49999999999996092 ) ;
#27 = DIRECTION ( 'NONE',  ( -0.9135454576426026430, -0.4067366430757962115, 0.000000000000000000 ) ) ;
#28 = AXIS2_PLACEMENT_3D ( 'NONE', #29, #241, #108 ) ;
#29 = CARTESIAN_POINT ( 'NONE',  ( 0.000000000000000000, 0.000000000000000000, 0.000000000000000000 ) ) ;
#30 = DIRECTION ( 'NONE',  ( -0.9135454576426037532, -0.4067366430757938245, 0.000000000000000000 ) ) ;
#31 = CARTESIAN_POINT ( 'NONE',  ( 300.2276692740089175, 842.9068532946714640, 0.000000000000000000 ) ) ;
#32 = ORIENTED_EDGE ( 'NONE', *, *, #9, .T. ) ;
#33 = CIRCLE ( 'NONE', #321, 9.699999999999636913 ) ;
#34 = AXIS2_PLACEMENT_3D ( 'NONE', #330, #298, #104 ) ;
#35 = DIRECTION ( 'NONE',  ( 0.000000000000000000, -0.000000000000000000, -1.000000000000000000 ) ) ;
#36 = PRODUCT_DEFINITION_CONTEXT ( 'detailed design', #237, 'design' ) ;
#37 = EDGE_CURVE ( 'NONE', #133, #6, #94, .T. ) ;
#38 = ORIENTED_EDGE ( 'NONE', *, *, #313, .F. ) ;
#39 = ORIENTED_EDGE ( 'NONE', *, *, #195, .T. ) ;
#40 = DIRECTION ( 'NONE',  ( -0.4067366430757988205, 0.9135454576426017548, -0.000000000000000000 ) ) ;
#41 = CIRCLE ( 'NONE', #82, 7.499999999999390710 ) ;
#42 = VECTOR ( 'NONE', #279, 1000.000000000000227 ) ;
#43 = VERTEX_POINT ( 'NONE', #31 ) ;
#44 = CARTESIAN_POINT ( 'NONE',  ( 316.5475321315187216, 853.4568332146544662, 1.163414459189939928E-15 ) ) ;
#45 = PRODUCT_DEFINITION_SHAPE ( 'NONE', 'NONE',  #59 ) ;
#46 = FACE_BOUND ( 'NONE', #266, .T. ) ;
#47 = FACE_BOUND ( 'NONE', #196, .T. ) ;
#48 = ADVANCED_FACE ( 'NONE', ( #218 ), #187, .T. ) ;
#49 = CARTESIAN_POINT ( 'NONE',  ( 310.3722021423387787, 825.5307647565863363, 0.000000000000000000 ) ) ;
#50 = FACE_OUTER_BOUND ( 'NONE', #65, .T. ) ;
#51 = CARTESIAN_POINT ( 'NONE',  ( 319.2881685044467872, 854.6770431438820879, 1.530808498934186985E-15 ) ) ;
#52 = CIRCLE ( 'NONE', #110, 9.699999999999636913 ) ;
#53 = AXIS2_PLACEMENT_3D ( 'NONE', #77, #210, #228 ) ;
#54 = CARTESIAN_POINT ( 'NONE',  ( 317.6863947321310775, 850.8989059332549232, 1.163414459189939928E-15 ) ) ;
#55 = ORIENTED_EDGE ( 'NONE', *, *, #157, .T. ) ;
#56 = AXIS2_PLACEMENT_3D ( 'NONE', #205, #245, #93 ) ;
#57 = VERTEX_POINT ( 'NONE', #83 ) ;
#58 = DIRECTION ( 'NONE',  ( -0.4067366430757988205, 0.9135454576426017548, -0.000000000000000000 ) ) ;
#59 = PRODUCT_DEFINITION ( 'UNKNOWN', '', #190, #36 ) ;
#60 = ADVANCED_FACE ( 'NONE', ( #139 ), #280, .T. ) ;
#61 = VERTEX_POINT ( 'NONE', #162 ) ;
#62 = STYLED_ITEM ( 'NONE', ( #204 ), #136 ) ;
#63 = SURFACE_STYLE_FILL_AREA ( #10 ) ;
#64 = ORIENTED_EDGE ( 'NONE', *, *, #95, .F. ) ;
#65 = EDGE_LOOP ( 'NONE', ( #285, #114, #14, #38 ) ) ;
#66 = DIRECTION ( 'NONE',  ( -0.9135454576425998674, -0.4067366430758025397, 0.000000000000000000 ) ) ;
#67 = EDGE_LOOP ( 'NONE', ( #8, #318, #144, #88 ) ) ;
#68 = DIRECTION ( 'NONE',  ( -0.4067366430757987650, 0.9135454576426015327, -0.000000000000000000 ) ) ;
#69 = AXIS2_PLACEMENT_3D ( 'NONE', #147, #170, #146 ) ;
#70 =( NAMED_UNIT ( * ) PLANE_ANGLE_UNIT ( ) SI_UNIT ( $, .RADIAN. ) );
#71 = ADVANCED_FACE ( 'NONE', ( #7 ), #263, .F. ) ;
#72 = CARTESIAN_POINT ( 'NONE',  ( 301.0172593515953281, 846.5423102823663157, 0.000000000000000000 ) ) ;
#73 = CARTESIAN_POINT ( 'NONE',  ( 328.6431112951902946, 833.6654976181018810, 1.530808498934186985E-15 ) ) ;
#74 = CIRCLE ( 'NONE', #69, 0.1999999999999779732 ) ;
#75 = CARTESIAN_POINT ( 'NONE',  ( 317.2237930746577490, 828.5812895796545945, 0.000000000000000000 ) ) ;
#76 = LINE ( 'NONE', #72, #126 ) ;
#77 = CARTESIAN_POINT ( 'NONE',  ( 309.0890602131418063, 846.8521987325065083, 0.000000000000000000 ) ) ;
#78 = AXIS2_PLACEMENT_3D ( 'NONE', #113, #35, #235 ) ;
#79 =( NAMED_UNIT ( * ) SI_UNIT ( $, .STERADIAN. ) SOLID_ANGLE_UNIT ( ) );
#80 = ORIENTED_EDGE ( 'NONE', *, *, #37, .T. ) ;
#81 = VERTEX_POINT ( 'NONE', #15 ) ;
#82 = AXIS2_PLACEMENT_3D ( 'NONE', #17, #121, #223 ) ;
#83 = CARTESIAN_POINT ( 'NONE',  ( 311.6699163931648968, 859.4949508608220867, 9.184850993604435998E-16 ) ) ;
#84 = PRODUCT_RELATED_PRODUCT_CATEGORY ( 'part', '', ( #23 ) ) ;
#85 = ADVANCED_FACE ( 'NONE', ( #89, #46 ), #92, .T. ) ;
#86 = ORIENTED_EDGE ( 'NONE', *, *, #259, .F. ) ;
#87 = UNCERTAINTY_MEASURE_WITH_UNIT (LENGTH_MEASURE( 1.000000000000000082E-05 ), #159, 'distance_accuracy_value', 'NONE');
#88 = ORIENTED_EDGE ( 'NONE', *, *, #25, .F. ) ;
#89 = FACE_OUTER_BOUND ( 'NONE', #306, .T. ) ;
#90 = CARTESIAN_POINT ( 'NONE',  ( 296.1396436132417307, 852.5804279285340499, 0.000000000000000000 ) ) ;
#91 = VERTEX_POINT ( 'NONE', #199 ) ;
#92 = PLANE ( 'NONE',  #207 ) ;
#93 = DIRECTION ( 'NONE',  ( -0.9135454576426021989, -0.4067366430757969886, 0.000000000000000000 ) ) ;
#94 = CIRCLE ( 'NONE', #117, 9.499999999999426237 ) ;
#95 = EDGE_CURVE ( 'NONE', #61, #6, #322, .T. ) ;
#96 = CARTESIAN_POINT ( 'NONE',  ( 307.8688502839142984, 849.5928351054345740, 0.000000000000000000 ) ) ;
#97 = DIRECTION ( 'NONE',  ( -0.9135454576426015327, -0.4067366430757987650, 0.000000000000000000 ) ) ;
#98 = CARTESIAN_POINT ( 'NONE',  ( 309.0077128845266543, 847.0349078240350309, 0.000000000000000000 ) ) ;
#99 = VECTOR ( 'NONE', #68, 1000.000000000000227 ) ;
#100 = CIRCLE ( 'NONE', #202, 7.499999999999440448 ) ;
#101 = DIRECTION ( 'NONE',  ( -0.4067366430757988205, 0.9135454576426017548, -0.000000000000000000 ) ) ;
#102 = DIRECTION ( 'NONE',  ( -0.9135454576426037532, -0.4067366430757938245, 0.000000000000000000 ) ) ;
#103 = ADVANCED_BREP_SHAPE_REPRESENTATION ( 'CYC-033', ( #136, #28 ), #297 ) ;
#104 = DIRECTION ( 'NONE',  ( 0.9135454576426015327, 0.4067366430757987650, 0.000000000000000000 ) ) ;
#105 = EDGE_CURVE ( 'NONE', #271, #81, #74, .T. ) ;
#106 = ORIENTED_EDGE ( 'NONE', *, *, #155, .T. ) ;
#107 = EDGE_LOOP ( 'NONE', ( #109, #214, #135, #32 ) ) ;
#108 = DIRECTION ( 'NONE',  ( 1.000000000000000000, 0.000000000000000000, 0.000000000000000000 ) ) ;
#109 = ORIENTED_EDGE ( 'NONE', *, *, #269, .F. ) ;
#110 = AXIS2_PLACEMENT_3D ( 'NONE', #276, #206, #208 ) ;
#111 = AXIS2_PLACEMENT_3D ( 'NONE', #24, #253, #151 ) ;
#112 = CARTESIAN_POINT ( 'NONE',  ( 304.8183254608459265, 856.4444260377538285, 0.000000000000000000 ) ) ;
#113 = CARTESIAN_POINT ( 'NONE',  ( 300.1463219453937654, 843.0895623861998729, 0.000000000000000000 ) ) ;
#114 = ORIENTED_EDGE ( 'NONE', *, *, #324, .F. ) ;
#115 = FACE_OUTER_BOUND ( 'NONE', #161, .T. ) ;
#116 = ADVANCED_FACE ( 'NONE', ( #115 ), #251, .F. ) ;
#117 = AXIS2_PLACEMENT_3D ( 'NONE', #234, #2, #305 ) ;
#118 = DIRECTION ( 'NONE',  ( -0.9135454576426026430, -0.4067366430757962115, 0.000000000000000000 ) ) ;
#119 = CARTESIAN_POINT ( 'NONE',  ( 307.8688502839142984, 849.5928351054345740, 0.000000000000000000 ) ) ;
#120 = ORIENTED_EDGE ( 'NONE', *, *, #183, .F. ) ;
#121 = DIRECTION ( 'NONE',  ( -0.4067366430757988205, 0.9135454576426017548, -0.000000000000000000 ) ) ;
#122 = EDGE_CURVE ( 'NONE', #248, #283, #292, .T. ) ;
#123 =( LENGTH_UNIT ( ) NAMED_UNIT ( * ) SI_UNIT ( .MILLI., .METRE. ) );
#124 = PLANE ( 'NONE',  #34 ) ;
#125 = LINE ( 'NONE', #185, #42 ) ;
#126 = VECTOR ( 'NONE', #177, 1000.000000000000227 ) ;
#127 = EDGE_CURVE ( 'NONE', #271, #133, #176, .T. ) ;
#128 = DIRECTION ( 'NONE',  ( -0.4067366430757988205, 0.9135454576426017548, -0.000000000000000000 ) ) ;
#129 = PLANE ( 'NONE',  #308 ) ;
#130 = CARTESIAN_POINT ( 'NONE',  ( 309.0890602131418063, 846.8521987325065083, 0.000000000000000000 ) ) ;
#131 = ADVANCED_FACE ( 'NONE', ( #141 ), #166, .T. ) ;
#132 = DIRECTION ( 'NONE',  ( -0.4067366430757987650, 0.9135454576426015327, -0.000000000000000000 ) ) ;
#133 = VERTEX_POINT ( 'NONE', #18 ) ;
#134 = EDGE_LOOP ( 'NONE', ( #5, #215 ) ) ;
#135 = ORIENTED_EDGE ( 'NONE', *, *, #293, .T. ) ;
#136 = MANIFOLD_SOLID_BREP ( 'Congé1', #303 ) ;
#137 = ORIENTED_EDGE ( 'NONE', *, *, #145, .F. ) ;
#138 = CIRCLE ( 'NONE', #19, 12.50000000000001243 ) ;
#139 = FACE_OUTER_BOUND ( 'NONE', #171, .T. ) ;
#140 = VERTEX_POINT ( 'NONE', #249 ) ;
#141 = FACE_OUTER_BOUND ( 'NONE', #198, .T. ) ;
#142 = EDGE_CURVE ( 'NONE', #57, #169, #41, .T. ) ;
#143 = DIRECTION ( 'NONE',  ( -0.9135454576426029760, -0.4067366430757953233, 0.000000000000000000 ) ) ;
#144 = ORIENTED_EDGE ( 'NONE', *, *, #195, .F. ) ;
#145 = EDGE_CURVE ( 'NONE', #140, #91, #326, .T. ) ;
#146 = DIRECTION ( 'NONE',  ( 1.000000000000000000, 0.000000000000000000, 1.118770520577743326E-16 ) ) ;
#147 = CARTESIAN_POINT ( 'NONE',  ( 317.8691038236595432, 850.9802532618700752, 1.187907395172887234E-15 ) ) ;
#148 = AXIS2_PLACEMENT_3D ( 'NONE', #112, #58, #27 ) ;
#149 = DIRECTION ( 'NONE',  ( -0.9135454576426015327, -0.4067366430757987650, 0.000000000000000000 ) ) ;
#150 = DIRECTION ( 'NONE',  ( -0.9135454576426039752, -0.4067366430757934914, 0.000000000000000000 ) ) ;
#151 = DIRECTION ( 'NONE',  ( -0.9135454576426021989, -0.4067366430757969886, 0.000000000000000000 ) ) ;
#152 = DIRECTION ( 'NONE',  ( -0.4067366430757987650, 0.9135454576426015327, 0.000000000000000000 ) ) ;
#153 = AXIS2_PLACEMENT_3D ( 'NONE', #96, #270, #197 ) ;
#154 = AXIS2_PLACEMENT_3D ( 'NONE', #290, #11, #66 ) ;
#155 = EDGE_CURVE ( 'NONE', #6, #133, #238, .T. ) ;
#156 = FACE_BOUND ( 'NONE', #158, .T. ) ;
#157 = EDGE_CURVE ( 'NONE', #283, #248, #138, .T. ) ;
#158 = EDGE_LOOP ( 'NONE', ( #200, #222 ) ) ;
#159 =( LENGTH_UNIT ( ) NAMED_UNIT ( * ) SI_UNIT ( .MILLI., .METRE. ) );
#160 = DIRECTION ( 'NONE',  ( -0.4067366430757987095, 0.9135454576426015327, -0.000000000000000000 ) ) ;
#161 = EDGE_LOOP ( 'NONE', ( #120, #268, #311, #312 ) ) ;
#162 = CARTESIAN_POINT ( 'NONE',  ( 300.3290310369223448, 843.1709097148151386, 0.000000000000000000 ) ) ;
#163 = CARTESIAN_POINT ( 'NONE',  ( 296.1396436132415033, 852.5804279285339362, 0.000000000000000000 ) ) ;
#164 = UNCERTAINTY_MEASURE_WITH_UNIT (LENGTH_MEASURE( 1.000000000000000082E-05 ), #123, 'distance_accuracy_value', 'NONE');
#165 = EDGE_LOOP ( 'NONE', ( #309, #243, #137, #291 ) ) ;
#166 = CYLINDRICAL_SURFACE ( 'NONE', #153, 12.49999999999996092 ) ;
#167 = ORIENTED_EDGE ( 'NONE', *, *, #122, .F. ) ;
#168 = DIRECTION ( 'NONE',  ( -0.9135454576426029760, -0.4067366430757953233, 0.000000000000000000 ) ) ;
#169 = VERTEX_POINT ( 'NONE', #247 ) ;
#170 = DIRECTION ( 'NONE',  ( -1.118770520577615876E-16, -4.981087280387163584E-17, 1.000000000000000000 ) ) ;
#171 = EDGE_LOOP ( 'NONE', ( #264, #201, #262, #64 ) ) ;
#172 = AXIS2_PLACEMENT_3D ( 'NONE', #323, #299, #149 ) ;
#173 = AXIS2_PLACEMENT_3D ( 'NONE', #192, #242, #30 ) ;
#174 = AXIS2_PLACEMENT_3D ( 'NONE', #98, #257, #97 ) ;
#175 = FILL_AREA_STYLE_COLOUR ( '', #212 ) ;
#176 = LINE ( 'NONE', #44, #302 ) ;
#177 = DIRECTION ( 'NONE',  ( -0.4067366430757987650, 0.9135454576426015327, -0.000000000000000000 ) ) ;
#178 = DIRECTION ( 'NONE',  ( -0.9135454576426015327, -0.4067366430757987650, 0.000000000000000000 ) ) ;
#179 = AXIS2_PLACEMENT_3D ( 'NONE', #216, #160, #261 ) ;
#180 = ADVANCED_FACE ( 'NONE', ( #47, #256 ), #129, .T. ) ;
#181 = DIRECTION ( 'NONE',  ( -0.4067366430757988205, 0.9135454576426017548, -0.000000000000000000 ) ) ;
#182 = CARTESIAN_POINT ( 'NONE',  ( 297.6697419926093175, 841.7679906940591081, 0.000000000000000000 ) ) ;
#183 = EDGE_CURVE ( 'NONE', #286, #310, #100, .T. ) ;
#184 = CIRCLE ( 'NONE', #226, 9.499999999999628741 ) ;
#185 = CARTESIAN_POINT ( 'NONE',  ( 314.7204412162332687, 852.6433599285028322, 9.184850993604435998E-16 ) ) ;
#186 = AXIS2_PLACEMENT_3D ( 'NONE', #3, #220, #227 ) ;
#187 = CYLINDRICAL_SURFACE ( 'NONE', #179, 9.499999999999628741 ) ;
#188 = ORIENTED_EDGE ( 'NONE', *, *, #9, .F. ) ;
#189 = ADVANCED_FACE ( 'NONE', ( #325 ), #26, .T. ) ;
#190 = PRODUCT_DEFINITION_FORMATION_WITH_SPECIFIED_SOURCE ( 'ANY', '', #23, .NOT_KNOWN. ) ;
#191 = CIRCLE ( 'NONE', #255, 9.499999999999628741 ) ;
#192 = CARTESIAN_POINT ( 'NONE',  ( 307.8688502839142984, 849.5928351054345740, 0.000000000000000000 ) ) ;
#193 = EDGE_LOOP ( 'NONE', ( #315, #282, #236, #16 ) ) ;
#194 = EDGE_LOOP ( 'NONE', ( #167, #284 ) ) ;
#195 = EDGE_CURVE ( 'NONE', #43, #81, #33, .T. ) ;
#196 = EDGE_LOOP ( 'NONE', ( #39, #288 ) ) ;
#197 = DIRECTION ( 'NONE',  ( -0.9135454576426021989, -0.4067366430757969886, 0.000000000000000000 ) ) ;
#198 = EDGE_LOOP ( 'NONE', ( #239, #55, #246, #86 ) ) ;
#199 = CARTESIAN_POINT ( 'NONE',  ( 320.5083784336742951, 851.9364067709539086, 1.530808498934186985E-15 ) ) ;
#200 = ORIENTED_EDGE ( 'NONE', *, *, #316, .T. ) ;
#201 = ORIENTED_EDGE ( 'NONE', *, *, #127, .T. ) ;
#202 = AXIS2_PLACEMENT_3D ( 'NONE', #296, #101, #150 ) ;
#203 = PRESENTATION_LAYER_ASSIGNMENT (  '', '', ( #62 ) ) ;
#204 = PRESENTATION_STYLE_ASSIGNMENT (( #244 ) ) ;
#205 = CARTESIAN_POINT ( 'NONE',  ( 309.0890602131418063, 846.8521987325065083, 0.000000000000000000 ) ) ;
#206 = DIRECTION ( 'NONE',  ( 0.4067366430757988205, -0.9135454576426017548, 0.000000000000000000 ) ) ;
#207 = AXIS2_PLACEMENT_3D ( 'NONE', #90, #225, #314 ) ;
#208 = DIRECTION ( 'NONE',  ( -0.9135454576426018658, -0.4067366430757977658, 0.000000000000000000 ) ) ;
#209 = CARTESIAN_POINT ( 'NONE',  ( 324.0753840069767193, 831.6318144027228527, 9.184850993604435998E-16 ) ) ;
#210 = DIRECTION ( 'NONE',  ( -0.4067366430757988205, 0.9135454576426017548, -0.000000000000000000 ) ) ;
#211 = SHAPE_DEFINITION_REPRESENTATION ( #45, #103 ) ;
#212 = COLOUR_RGB ( '',0.6470588235294117974, 0.6196078431372549211, 0.5882352941176470784 ) ;
#213 = CIRCLE ( 'NONE', #148, 7.499999999999390710 ) ;
#214 = ORIENTED_EDGE ( 'NONE', *, *, #316, .F. ) ;
#215 = ORIENTED_EDGE ( 'NONE', *, *, #259, .T. ) ;
#216 = CARTESIAN_POINT ( 'NONE',  ( 307.8688502839142984, 849.5928351054345740, 0.000000000000000000 ) ) ;
#217 = TOROIDAL_SURFACE ( 'NONE', #172, 9.699999999999628031, 0.2000000000000000111 ) ;
#218 = FACE_OUTER_BOUND ( 'NONE', #193, .T. ) ;
#219 = EDGE_CURVE ( 'NONE', #248, #140, #252, .T. ) ;
#220 = DIRECTION ( 'NONE',  ( -0.4067366430757987095, 0.9135454576426015327, -0.000000000000000000 ) ) ;
#221 = DIRECTION ( 'NONE',  ( -0.4067366430757987650, 0.9135454576426015327, -0.000000000000000000 ) ) ;
#222 = ORIENTED_EDGE ( 'NONE', *, *, #183, .T. ) ;
#223 = DIRECTION ( 'NONE',  ( -0.9135454576426026430, -0.4067366430757962115, 0.000000000000000000 ) ) ;
#224 = CARTESIAN_POINT ( 'NONE',  ( 317.2237930746577490, 828.5812895796544808, 0.000000000000000000 ) ) ;
#225 = DIRECTION ( 'NONE',  ( -0.4067366430757987650, 0.9135454576426015327, 0.000000000000000000 ) ) ;
#226 = AXIS2_PLACEMENT_3D ( 'NONE', #277, #128, #230 ) ;
#227 = DIRECTION ( 'NONE',  ( -0.9135454576426026430, -0.4067366430757962115, 0.000000000000000000 ) ) ;
#228 = DIRECTION ( 'NONE',  ( -0.9135454576426021989, -0.4067366430757969886, 0.000000000000000000 ) ) ;
#229 = MECHANICAL_DESIGN_GEOMETRIC_PRESENTATION_REPRESENTATION (  '', ( #62 ), #281 ) ;
#230 = DIRECTION ( 'NONE',  ( -0.9135454576426037532, -0.4067366430757938245, 0.000000000000000000 ) ) ;
#231 = TOROIDAL_SURFACE ( 'NONE', #174, 9.699999999999628031, 0.2000000000000000111 ) ;
#232 = DIRECTION ( 'NONE',  ( 0.4067366430757988205, -0.9135454576426017548, 0.000000000000000000 ) ) ;
#233 = FACE_OUTER_BOUND ( 'NONE', #194, .T. ) ;
#234 = CARTESIAN_POINT ( 'NONE',  ( 304.8183254608459265, 856.4444260377539422, 0.000000000000000000 ) ) ;
#235 = DIRECTION ( 'NONE',  ( -1.000000000000000000, 0.000000000000000000, 0.000000000000000000 ) ) ;
#236 = ORIENTED_EDGE ( 'NONE', *, *, #95, .T. ) ;
#237 = APPLICATION_CONTEXT ( 'automotive_design' ) ;
#238 = CIRCLE ( 'NONE', #154, 9.499999999999426237 ) ;
#239 = ORIENTED_EDGE ( 'NONE', *, *, #329, .F. ) ;
#240 = EDGE_CURVE ( 'NONE', #271, #61, #191, .T. ) ;
#241 = DIRECTION ( 'NONE',  ( 0.000000000000000000, 0.000000000000000000, 1.000000000000000000 ) ) ;
#242 = DIRECTION ( 'NONE',  ( -0.4067366430757987095, 0.9135454576426015327, -0.000000000000000000 ) ) ;
#243 = ORIENTED_EDGE ( 'NONE', *, *, #329, .T. ) ;
#244 = SURFACE_STYLE_USAGE ( .BOTH. , #267 ) ;
#245 = DIRECTION ( 'NONE',  ( -0.4067366430757988205, 0.9135454576426017548, -0.000000000000000000 ) ) ;
#246 = ORIENTED_EDGE ( 'NONE', *, *, #219, .T. ) ;
#247 = CARTESIAN_POINT ( 'NONE',  ( 297.9667345285269562, 853.3939012146855703, 0.000000000000000000 ) ) ;
#248 = VERTEX_POINT ( 'NONE', #328 ) ;
#249 = CARTESIAN_POINT ( 'NONE',  ( 297.6697419926093744, 841.7679906940591081, 0.000000000000000000 ) ) ;
#250 = APPLICATION_CONTEXT ( 'automotive_design' ) ;
#251 = CYLINDRICAL_SURFACE ( 'NONE', #265, 7.499999999999390710 ) ;
#252 = LINE ( 'NONE', #254, #13 ) ;
#253 = DIRECTION ( 'NONE',  ( -0.4067366430757987095, 0.9135454576426015327, -0.000000000000000000 ) ) ;
#254 = CARTESIAN_POINT ( 'NONE',  ( 296.4495320633818096, 844.5086270669871737, 0.000000000000000000 ) ) ;
#255 = AXIS2_PLACEMENT_3D ( 'NONE', #20, #295, #102 ) ;
#256 = FACE_OUTER_BOUND ( 'NONE', #134, .T. ) ;
#257 = DIRECTION ( 'NONE',  ( -0.4067366430757987095, 0.9135454576426015327, -0.000000000000000000 ) ) ;
#258 = ORIENTED_EDGE ( 'NONE', *, *, #142, .F. ) ;
#259 = EDGE_CURVE ( 'NONE', #91, #140, #307, .T. ) ;
#260 =( NAMED_UNIT ( * ) PLANE_ANGLE_UNIT ( ) SI_UNIT ( $, .RADIAN. ) );
#261 = DIRECTION ( 'NONE',  ( -0.9135454576426037532, -0.4067366430757938245, 0.000000000000000000 ) ) ;
#262 = ORIENTED_EDGE ( 'NONE', *, *, #155, .F. ) ;
#263 = CYLINDRICAL_SURFACE ( 'NONE', #186, 7.499999999999390710 ) ;
#264 = ORIENTED_EDGE ( 'NONE', *, *, #324, .T. ) ;
#265 = AXIS2_PLACEMENT_3D ( 'NONE', #119, #294, #118 ) ;
#266 = EDGE_LOOP ( 'NONE', ( #188, #258 ) ) ;
#267 = SURFACE_SIDE_STYLE ('',( #63 ) ) ;
#268 = ORIENTED_EDGE ( 'NONE', *, *, #269, .T. ) ;
#269 = EDGE_CURVE ( 'NONE', #286, #57, #125, .T. ) ;
#270 = DIRECTION ( 'NONE',  ( -0.4067366430757987095, 0.9135454576426015327, -0.000000000000000000 ) ) ;
#271 = VERTEX_POINT ( 'NONE', #54 ) ;
#272 =( NAMED_UNIT ( * ) SI_UNIT ( $, .STERADIAN. ) SOLID_ANGLE_UNIT ( ) );
#273 = ADVANCED_FACE ( 'NONE', ( #50 ), #231, .F. ) ;
#274 = CARTESIAN_POINT ( 'NONE',  ( 299.1901684363099321, 845.7288369962146817, 0.000000000000000000 ) ) ;
#275 = FACE_OUTER_BOUND ( 'NONE', #67, .T. ) ;
#276 = CARTESIAN_POINT ( 'NONE',  ( 309.0890602131418063, 846.8521987325065083, 0.000000000000000000 ) ) ;
#277 = CARTESIAN_POINT ( 'NONE',  ( 309.0077128845266543, 847.0349078240350309, 0.000000000000000000 ) ) ;
#278 = CIRCLE ( 'NONE', #320, 7.499999999999440448 ) ;
#279 = DIRECTION ( 'NONE',  ( -0.4067366430757987650, 0.9135454576426015327, -0.000000000000000000 ) ) ;
#280 = CYLINDRICAL_SURFACE ( 'NONE', #173, 9.499999999999628741 ) ;
#281 =( GEOMETRIC_REPRESENTATION_CONTEXT ( 3 ) GLOBAL_UNCERTAINTY_ASSIGNED_CONTEXT ( ( #164 ) ) GLOBAL_UNIT_ASSIGNED_CONTEXT ( ( #123, #70, #272 ) ) REPRESENTATION_CONTEXT ( 'NONE', 'WORKASPACE' ) );
#282 = ORIENTED_EDGE ( 'NONE', *, *, #240, .T. ) ;
#283 = VERTEX_POINT ( 'NONE', #73 ) ;
#284 = ORIENTED_EDGE ( 'NONE', *, *, #157, .F. ) ;
#285 = ORIENTED_EDGE ( 'NONE', *, *, #105, .F. ) ;
#286 = VERTEX_POINT ( 'NONE', #209 ) ;
#287 = AXIS2_PLACEMENT_3D ( 'NONE', #224, #319, #168 ) ;
#288 = ORIENTED_EDGE ( 'NONE', *, *, #313, .T. ) ;
#289 = ADVANCED_FACE ( 'NONE', ( #156, #233 ), #124, .T. ) ;
#290 = CARTESIAN_POINT ( 'NONE',  ( 304.8183254608459265, 856.4444260377539422, 0.000000000000000000 ) ) ;
#291 = ORIENTED_EDGE ( 'NONE', *, *, #219, .F. ) ;
#292 = CIRCLE ( 'NONE', #287, 12.50000000000001243 ) ;
#293 = EDGE_CURVE ( 'NONE', #310, #169, #76, .T. ) ;
#294 = DIRECTION ( 'NONE',  ( -0.4067366430757987095, 0.9135454576426015327, -0.000000000000000000 ) ) ;
#295 = DIRECTION ( 'NONE',  ( -0.4067366430757988205, 0.9135454576426017548, -0.000000000000000000 ) ) ;
#296 = CARTESIAN_POINT ( 'NONE',  ( 317.2237930746577490, 828.5812895796545945, 0.000000000000000000 ) ) ;
#297 =( GEOMETRIC_REPRESENTATION_CONTEXT ( 3 ) GLOBAL_UNCERTAINTY_ASSIGNED_CONTEXT ( ( #87 ) ) GLOBAL_UNIT_ASSIGNED_CONTEXT ( ( #159, #260, #79 ) ) REPRESENTATION_CONTEXT ( 'NONE', 'WORKASPACE' ) );
#298 = DIRECTION ( 'NONE',  ( 0.4067366430757987650, -0.9135454576426015327, 0.000000000000000000 ) ) ;
#299 = DIRECTION ( 'NONE',  ( -0.4067366430757987095, 0.9135454576426015327, -0.000000000000000000 ) ) ;
#300 = DIRECTION ( 'NONE',  ( -0.9135454576426018658, -0.4067366430757977658, 0.000000000000000000 ) ) ;
#301 = ADVANCED_FACE ( 'NONE', ( #275 ), #217, .F. ) ;
#302 = VECTOR ( 'NONE', #221, 1000.000000000000227 ) ;
#303 = CLOSED_SHELL ( 'NONE', ( #301, #60, #116, #189, #180, #131, #289, #71, #85, #48, #273 ) ) ;
#304 = APPLICATION_PROTOCOL_DEFINITION ( 'draft international standard', 'automotive_design', 1998, #237 ) ;
#305 = DIRECTION ( 'NONE',  ( -0.9135454576425998674, -0.4067366430758025397, 0.000000000000000000 ) ) ;
#306 = EDGE_LOOP ( 'NONE', ( #106, #80 ) ) ;
#307 = CIRCLE ( 'NONE', #53, 12.49999999999996092 ) ;
#308 = AXIS2_PLACEMENT_3D ( 'NONE', #182, #152, #178 ) ;
#309 = ORIENTED_EDGE ( 'NONE', *, *, #122, .T. ) ;
#310 = VERTEX_POINT ( 'NONE', #49 ) ;
#311 = ORIENTED_EDGE ( 'NONE', *, *, #142, .T. ) ;
#312 = ORIENTED_EDGE ( 'NONE', *, *, #293, .F. ) ;
#313 = EDGE_CURVE ( 'NONE', #81, #43, #52, .T. ) ;
#314 = DIRECTION ( 'NONE',  ( -0.9135454576426015327, -0.4067366430757987650, 0.000000000000000000 ) ) ;
#315 = ORIENTED_EDGE ( 'NONE', *, *, #127, .F. ) ;
#316 = EDGE_CURVE ( 'NONE', #310, #286, #278, .T. ) ;
#317 = CARTESIAN_POINT ( 'NONE',  ( 317.2237930746577490, 828.5812895796544808, 0.000000000000000000 ) ) ;
#318 = ORIENTED_EDGE ( 'NONE', *, *, #105, .T. ) ;
#319 = DIRECTION ( 'NONE',  ( -0.4067366430757988205, 0.9135454576426017548, -0.000000000000000000 ) ) ;
#320 = AXIS2_PLACEMENT_3D ( 'NONE', #75, #181, #22 ) ;
#321 = AXIS2_PLACEMENT_3D ( 'NONE', #130, #232, #300 ) ;
#322 = LINE ( 'NONE', #274, #99 ) ;
#323 = CARTESIAN_POINT ( 'NONE',  ( 309.0077128845266543, 847.0349078240350309, 0.000000000000000000 ) ) ;
#324 = EDGE_CURVE ( 'NONE', #61, #271, #184, .T. ) ;
#325 = FACE_OUTER_BOUND ( 'NONE', #165, .T. ) ;
#326 = CIRCLE ( 'NONE', #56, 12.49999999999996092 ) ;
#327 = LINE ( 'NONE', #51, #12 ) ;
#328 = CARTESIAN_POINT ( 'NONE',  ( 305.8044748541253171, 823.4970815412070806, 0.000000000000000000 ) ) ;
#329 = EDGE_CURVE ( 'NONE', #283, #91, #327, .T. ) ;
#330 = CARTESIAN_POINT ( 'NONE',  ( 310.3722021423387787, 825.5307647565862226, 0.000000000000000000 ) ) ;
#331 = CIRCLE ( 'NONE', #78, 0.1999999999999779732 ) ;
ENDSEC;
END-ISO-10303-21;
