ISO-10303-21;
HEADER;
/* Generated by software containing ST-Developer
 * from STEP Tools, Inc. (www.steptools.com) 
 */
/* OPTION: using custom renumber hook */

FILE_DESCRIPTION(
/* description */ ('STEP AP242',
'CAx-IF Rec.Pracs.---Representation and Presentation of Product Manufa
cturing Information (PMI)---4.0---2014-10-13',
'CAx-IF Rec.Pracs.---3D Tessellated Geometry---0.4---2014-09-14','2;1'),

/* implementation_level */ '2;1');

FILE_NAME(
/* name */ '66329c49cc000347d922bc23',
/* time_stamp */ '2024-05-01T19:47:22Z',
/* author */ (''),
/* organization */ (''),
/* preprocessor_version */ 'ST-DEVELOPER v20',
/* originating_system */ '  ',
/* authorisation */ '  ');

FILE_SCHEMA (('AP242_MANAGED_MODEL_BASED_3D_ENGINEERING_MIM_LF { 1 0 10303 442 1 1 4 }'));
ENDSEC;

DATA;
#10=SHAPE_REPRESENTATION_RELATIONSHIP('','',#351,#11);
#11=ADVANCED_BREP_SHAPE_REPRESENTATION('',(#349),#589);
#12=CIRCLE('',#355,0.01);
#13=CIRCLE('',#356,0.01);
#14=CIRCLE('',#361,0.01);
#15=CIRCLE('',#362,0.01);
#16=CIRCLE('',#365,0.004);
#17=CIRCLE('',#366,0.004);
#18=CIRCLE('',#369,0.016);
#19=CIRCLE('',#370,0.016);
#20=CIRCLE('',#372,0.016);
#21=CIRCLE('',#373,0.016);
#22=CIRCLE('',#375,0.004);
#23=CIRCLE('',#376,0.004);
#24=CIRCLE('',#378,0.01);
#25=CIRCLE('',#379,0.01);
#26=CIRCLE('',#380,0.01);
#27=CIRCLE('',#381,0.01);
#28=CIRCLE('',#383,0.01);
#29=CIRCLE('',#384,0.01);
#30=CIRCLE('',#385,0.01);
#31=CIRCLE('',#386,0.01);
#32=CYLINDRICAL_SURFACE('',#354,0.01);
#33=CYLINDRICAL_SURFACE('',#360,0.01);
#34=CYLINDRICAL_SURFACE('',#364,0.004);
#35=CYLINDRICAL_SURFACE('',#368,0.016);
#36=CYLINDRICAL_SURFACE('',#371,0.016);
#37=CYLINDRICAL_SURFACE('',#374,0.004);
#38=CYLINDRICAL_SURFACE('',#387,0.01);
#39=CYLINDRICAL_SURFACE('',#388,0.01);
#40=CYLINDRICAL_SURFACE('',#389,0.01);
#41=CYLINDRICAL_SURFACE('',#390,0.01);
#42=ORIENTED_EDGE('',*,*,#130,.F.);
#43=ORIENTED_EDGE('',*,*,#131,.T.);
#44=ORIENTED_EDGE('',*,*,#132,.T.);
#45=ORIENTED_EDGE('',*,*,#133,.F.);
#46=ORIENTED_EDGE('',*,*,#134,.T.);
#47=ORIENTED_EDGE('',*,*,#135,.F.);
#48=ORIENTED_EDGE('',*,*,#136,.F.);
#49=ORIENTED_EDGE('',*,*,#133,.T.);
#50=ORIENTED_EDGE('',*,*,#137,.F.);
#51=ORIENTED_EDGE('',*,*,#138,.T.);
#52=ORIENTED_EDGE('',*,*,#139,.T.);
#53=ORIENTED_EDGE('',*,*,#135,.T.);
#54=ORIENTED_EDGE('',*,*,#140,.F.);
#55=ORIENTED_EDGE('',*,*,#141,.T.);
#56=ORIENTED_EDGE('',*,*,#142,.T.);
#57=ORIENTED_EDGE('',*,*,#143,.T.);
#58=ORIENTED_EDGE('',*,*,#144,.F.);
#59=ORIENTED_EDGE('',*,*,#145,.T.);
#60=ORIENTED_EDGE('',*,*,#146,.T.);
#61=ORIENTED_EDGE('',*,*,#147,.F.);
#62=ORIENTED_EDGE('',*,*,#148,.T.);
#63=ORIENTED_EDGE('',*,*,#149,.F.);
#64=ORIENTED_EDGE('',*,*,#150,.F.);
#65=ORIENTED_EDGE('',*,*,#147,.T.);
#66=ORIENTED_EDGE('',*,*,#151,.F.);
#67=ORIENTED_EDGE('',*,*,#152,.T.);
#68=ORIENTED_EDGE('',*,*,#153,.T.);
#69=ORIENTED_EDGE('',*,*,#149,.T.);
#70=ORIENTED_EDGE('',*,*,#154,.F.);
#71=ORIENTED_EDGE('',*,*,#155,.T.);
#72=ORIENTED_EDGE('',*,*,#156,.T.);
#73=ORIENTED_EDGE('',*,*,#157,.T.);
#74=ORIENTED_EDGE('',*,*,#158,.F.);
#75=ORIENTED_EDGE('',*,*,#159,.T.);
#76=ORIENTED_EDGE('',*,*,#160,.T.);
#77=ORIENTED_EDGE('',*,*,#161,.F.);
#78=ORIENTED_EDGE('',*,*,#162,.T.);
#79=ORIENTED_EDGE('',*,*,#163,.F.);
#80=ORIENTED_EDGE('',*,*,#164,.T.);
#81=ORIENTED_EDGE('',*,*,#165,.F.);
#82=ORIENTED_EDGE('',*,*,#162,.F.);
#83=ORIENTED_EDGE('',*,*,#160,.F.);
#84=ORIENTED_EDGE('',*,*,#153,.F.);
#85=ORIENTED_EDGE('',*,*,#166,.T.);
#86=ORIENTED_EDGE('',*,*,#156,.F.);
#87=ORIENTED_EDGE('',*,*,#167,.T.);
#88=ORIENTED_EDGE('',*,*,#130,.T.);
#89=ORIENTED_EDGE('',*,*,#136,.T.);
#90=ORIENTED_EDGE('',*,*,#139,.F.);
#91=ORIENTED_EDGE('',*,*,#168,.T.);
#92=ORIENTED_EDGE('',*,*,#142,.F.);
#93=ORIENTED_EDGE('',*,*,#169,.T.);
#94=ORIENTED_EDGE('',*,*,#144,.T.);
#95=ORIENTED_EDGE('',*,*,#150,.T.);
#96=ORIENTED_EDGE('',*,*,#154,.T.);
#97=ORIENTED_EDGE('',*,*,#164,.F.);
#98=ORIENTED_EDGE('',*,*,#163,.T.);
#99=ORIENTED_EDGE('',*,*,#161,.T.);
#100=ORIENTED_EDGE('',*,*,#158,.T.);
#101=ORIENTED_EDGE('',*,*,#170,.T.);
#102=ORIENTED_EDGE('',*,*,#151,.T.);
#103=ORIENTED_EDGE('',*,*,#148,.F.);
#104=ORIENTED_EDGE('',*,*,#146,.F.);
#105=ORIENTED_EDGE('',*,*,#171,.T.);
#106=ORIENTED_EDGE('',*,*,#140,.T.);
#107=ORIENTED_EDGE('',*,*,#172,.T.);
#108=ORIENTED_EDGE('',*,*,#137,.T.);
#109=ORIENTED_EDGE('',*,*,#134,.F.);
#110=ORIENTED_EDGE('',*,*,#132,.F.);
#111=ORIENTED_EDGE('',*,*,#173,.T.);
#112=ORIENTED_EDGE('',*,*,#155,.F.);
#113=ORIENTED_EDGE('',*,*,#165,.T.);
#114=ORIENTED_EDGE('',*,*,#166,.F.);
#115=ORIENTED_EDGE('',*,*,#152,.F.);
#116=ORIENTED_EDGE('',*,*,#170,.F.);
#117=ORIENTED_EDGE('',*,*,#157,.F.);
#118=ORIENTED_EDGE('',*,*,#169,.F.);
#119=ORIENTED_EDGE('',*,*,#141,.F.);
#120=ORIENTED_EDGE('',*,*,#171,.F.);
#121=ORIENTED_EDGE('',*,*,#145,.F.);
#122=ORIENTED_EDGE('',*,*,#168,.F.);
#123=ORIENTED_EDGE('',*,*,#138,.F.);
#124=ORIENTED_EDGE('',*,*,#172,.F.);
#125=ORIENTED_EDGE('',*,*,#143,.F.);
#126=ORIENTED_EDGE('',*,*,#167,.F.);
#127=ORIENTED_EDGE('',*,*,#159,.F.);
#128=ORIENTED_EDGE('',*,*,#173,.F.);
#129=ORIENTED_EDGE('',*,*,#131,.F.);
#130=EDGE_CURVE('',#174,#175,#206,.T.);
#131=EDGE_CURVE('',#174,#176,#207,.T.);
#132=EDGE_CURVE('',#176,#177,#208,.T.);
#133=EDGE_CURVE('',#175,#177,#209,.T.);
#134=EDGE_CURVE('',#177,#178,#12,.T.);
#135=EDGE_CURVE('',#179,#178,#210,.T.);
#136=EDGE_CURVE('',#175,#179,#13,.T.);
#137=EDGE_CURVE('',#180,#178,#211,.T.);
#138=EDGE_CURVE('',#180,#181,#212,.F.);
#139=EDGE_CURVE('',#181,#179,#213,.T.);
#140=EDGE_CURVE('',#182,#183,#214,.T.);
#141=EDGE_CURVE('',#182,#184,#215,.F.);
#142=EDGE_CURVE('',#184,#185,#216,.T.);
#143=EDGE_CURVE('',#185,#183,#217,.T.);
#144=EDGE_CURVE('',#186,#187,#218,.T.);
#145=EDGE_CURVE('',#186,#188,#219,.T.);
#146=EDGE_CURVE('',#188,#189,#220,.T.);
#147=EDGE_CURVE('',#187,#189,#221,.T.);
#148=EDGE_CURVE('',#189,#190,#14,.T.);
#149=EDGE_CURVE('',#191,#190,#222,.T.);
#150=EDGE_CURVE('',#187,#191,#15,.T.);
#151=EDGE_CURVE('',#192,#190,#223,.T.);
#152=EDGE_CURVE('',#192,#193,#224,.F.);
#153=EDGE_CURVE('',#193,#191,#225,.T.);
#154=EDGE_CURVE('',#194,#194,#16,.T.);
#155=EDGE_CURVE('',#195,#195,#17,.T.);
#156=EDGE_CURVE('',#196,#197,#226,.T.);
#157=EDGE_CURVE('',#197,#198,#227,.T.);
#158=EDGE_CURVE('',#199,#198,#228,.T.);
#159=EDGE_CURVE('',#199,#196,#229,.F.);
#160=EDGE_CURVE('',#200,#200,#18,.T.);
#161=EDGE_CURVE('',#201,#201,#19,.T.);
#162=EDGE_CURVE('',#202,#202,#20,.T.);
#163=EDGE_CURVE('',#203,#203,#21,.T.);
#164=EDGE_CURVE('',#204,#204,#22,.T.);
#165=EDGE_CURVE('',#205,#205,#23,.T.);
#166=EDGE_CURVE('',#193,#197,#24,.T.);
#167=EDGE_CURVE('',#196,#174,#25,.T.);
#168=EDGE_CURVE('',#181,#185,#26,.T.);
#169=EDGE_CURVE('',#184,#186,#27,.T.);
#170=EDGE_CURVE('',#198,#192,#28,.F.);
#171=EDGE_CURVE('',#188,#182,#29,.F.);
#172=EDGE_CURVE('',#183,#180,#30,.F.);
#173=EDGE_CURVE('',#176,#199,#31,.F.);
#174=VERTEX_POINT('',#496);
#175=VERTEX_POINT('',#497);
#176=VERTEX_POINT('',#499);
#177=VERTEX_POINT('',#501);
#178=VERTEX_POINT('',#505);
#179=VERTEX_POINT('',#507);
#180=VERTEX_POINT('',#511);
#181=VERTEX_POINT('',#513);
#182=VERTEX_POINT('',#517);
#183=VERTEX_POINT('',#518);
#184=VERTEX_POINT('',#520);
#185=VERTEX_POINT('',#522);
#186=VERTEX_POINT('',#526);
#187=VERTEX_POINT('',#527);
#188=VERTEX_POINT('',#529);
#189=VERTEX_POINT('',#531);
#190=VERTEX_POINT('',#535);
#191=VERTEX_POINT('',#537);
#192=VERTEX_POINT('',#541);
#193=VERTEX_POINT('',#543);
#194=VERTEX_POINT('',#547);
#195=VERTEX_POINT('',#549);
#196=VERTEX_POINT('',#552);
#197=VERTEX_POINT('',#553);
#198=VERTEX_POINT('',#555);
#199=VERTEX_POINT('',#557);
#200=VERTEX_POINT('',#561);
#201=VERTEX_POINT('',#563);
#202=VERTEX_POINT('',#566);
#203=VERTEX_POINT('',#568);
#204=VERTEX_POINT('',#571);
#205=VERTEX_POINT('',#573);
#206=LINE('',#495,#230);
#207=LINE('',#498,#231);
#208=LINE('',#500,#232);
#209=LINE('',#502,#233);
#210=LINE('',#506,#234);
#211=LINE('',#510,#235);
#212=LINE('',#512,#236);
#213=LINE('',#514,#237);
#214=LINE('',#516,#238);
#215=LINE('',#519,#239);
#216=LINE('',#521,#240);
#217=LINE('',#523,#241);
#218=LINE('',#525,#242);
#219=LINE('',#528,#243);
#220=LINE('',#530,#244);
#221=LINE('',#532,#245);
#222=LINE('',#536,#246);
#223=LINE('',#540,#247);
#224=LINE('',#542,#248);
#225=LINE('',#544,#249);
#226=LINE('',#551,#250);
#227=LINE('',#554,#251);
#228=LINE('',#556,#252);
#229=LINE('',#558,#253);
#230=VECTOR('',#395,1.);
#231=VECTOR('',#396,1.);
#232=VECTOR('',#397,1.);
#233=VECTOR('',#398,1.);
#234=VECTOR('',#403,1.);
#235=VECTOR('',#408,1.);
#236=VECTOR('',#409,1.);
#237=VECTOR('',#410,1.);
#238=VECTOR('',#413,1.);
#239=VECTOR('',#414,1.);
#240=VECTOR('',#415,1.);
#241=VECTOR('',#416,1.);
#242=VECTOR('',#419,1.);
#243=VECTOR('',#420,1.);
#244=VECTOR('',#421,1.);
#245=VECTOR('',#422,1.);
#246=VECTOR('',#427,1.);
#247=VECTOR('',#432,1.);
#248=VECTOR('',#433,1.);
#249=VECTOR('',#434,1.);
#250=VECTOR('',#443,1.);
#251=VECTOR('',#444,1.);
#252=VECTOR('',#445,1.);
#253=VECTOR('',#446,1.);
#254=EDGE_LOOP('',(#42,#43,#44,#45));
#255=EDGE_LOOP('',(#46,#47,#48,#49));
#256=EDGE_LOOP('',(#50,#51,#52,#53));
#257=EDGE_LOOP('',(#54,#55,#56,#57));
#258=EDGE_LOOP('',(#58,#59,#60,#61));
#259=EDGE_LOOP('',(#62,#63,#64,#65));
#260=EDGE_LOOP('',(#66,#67,#68,#69));
#261=EDGE_LOOP('',(#70));
#262=EDGE_LOOP('',(#71));
#263=EDGE_LOOP('',(#72,#73,#74,#75));
#264=EDGE_LOOP('',(#76));
#265=EDGE_LOOP('',(#77));
#266=EDGE_LOOP('',(#78));
#267=EDGE_LOOP('',(#79));
#268=EDGE_LOOP('',(#80));
#269=EDGE_LOOP('',(#81));
#270=EDGE_LOOP('',(#82));
#271=EDGE_LOOP('',(#83));
#272=EDGE_LOOP('',(#84,#85,#86,#87,#88,#89,#90,#91,#92,#93,#94,#95));
#273=EDGE_LOOP('',(#96));
#274=EDGE_LOOP('',(#97));
#275=EDGE_LOOP('',(#98));
#276=EDGE_LOOP('',(#99));
#277=EDGE_LOOP('',(#100,#101,#102,#103,#104,#105,#106,#107,#108,#109,#110,
#111));
#278=EDGE_LOOP('',(#112));
#279=EDGE_LOOP('',(#113));
#280=EDGE_LOOP('',(#114,#115,#116,#117));
#281=EDGE_LOOP('',(#118,#119,#120,#121));
#282=EDGE_LOOP('',(#122,#123,#124,#125));
#283=EDGE_LOOP('',(#126,#127,#128,#129));
#284=FACE_BOUND('',#254,.T.);
#285=FACE_BOUND('',#255,.T.);
#286=FACE_BOUND('',#256,.T.);
#287=FACE_BOUND('',#257,.T.);
#288=FACE_BOUND('',#258,.T.);
#289=FACE_BOUND('',#259,.T.);
#290=FACE_BOUND('',#260,.T.);
#291=FACE_BOUND('',#261,.T.);
#292=FACE_BOUND('',#262,.T.);
#293=FACE_BOUND('',#263,.T.);
#294=FACE_BOUND('',#264,.T.);
#295=FACE_BOUND('',#265,.T.);
#296=FACE_BOUND('',#266,.T.);
#297=FACE_BOUND('',#267,.T.);
#298=FACE_BOUND('',#268,.T.);
#299=FACE_BOUND('',#269,.T.);
#300=FACE_BOUND('',#270,.T.);
#301=FACE_BOUND('',#271,.T.);
#302=FACE_BOUND('',#272,.T.);
#303=FACE_BOUND('',#273,.T.);
#304=FACE_BOUND('',#274,.T.);
#305=FACE_BOUND('',#275,.T.);
#306=FACE_BOUND('',#276,.T.);
#307=FACE_BOUND('',#277,.T.);
#308=FACE_BOUND('',#278,.T.);
#309=FACE_BOUND('',#279,.T.);
#310=FACE_BOUND('',#280,.T.);
#311=FACE_BOUND('',#281,.T.);
#312=FACE_BOUND('',#282,.T.);
#313=FACE_BOUND('',#283,.T.);
#314=PLANE('',#353);
#315=PLANE('',#357);
#316=PLANE('',#358);
#317=PLANE('',#359);
#318=PLANE('',#363);
#319=PLANE('',#367);
#320=PLANE('',#377);
#321=PLANE('',#382);
#322=ADVANCED_FACE('',(#284),#314,.F.);
#323=ADVANCED_FACE('',(#285),#32,.T.);
#324=ADVANCED_FACE('',(#286),#315,.T.);
#325=ADVANCED_FACE('',(#287),#316,.T.);
#326=ADVANCED_FACE('',(#288),#317,.F.);
#327=ADVANCED_FACE('',(#289),#33,.T.);
#328=ADVANCED_FACE('',(#290),#318,.T.);
#329=ADVANCED_FACE('',(#291,#292),#34,.F.);
#330=ADVANCED_FACE('',(#293),#319,.T.);
#331=ADVANCED_FACE('',(#294,#295),#35,.F.);
#332=ADVANCED_FACE('',(#296,#297),#36,.F.);
#333=ADVANCED_FACE('',(#298,#299),#37,.F.);
#334=ADVANCED_FACE('',(#300,#301,#302,#303,#304),#320,.T.);
#335=ADVANCED_FACE('',(#305,#306,#307,#308,#309),#321,.F.);
#336=ADVANCED_FACE('',(#310),#38,.T.);
#337=ADVANCED_FACE('',(#311),#39,.T.);
#338=ADVANCED_FACE('',(#312),#40,.T.);
#339=ADVANCED_FACE('',(#313),#41,.T.);
#340=CLOSED_SHELL('',(#322,#323,#324,#325,#326,#327,#328,#329,#330,#331,
#332,#333,#334,#335,#336,#337,#338,#339));
#341=STYLED_ITEM('',(#342),#349);
#342=PRESENTATION_STYLE_ASSIGNMENT((#343));
#343=SURFACE_STYLE_USAGE(.BOTH.,#344);
#344=SURFACE_SIDE_STYLE('',(#345));
#345=SURFACE_STYLE_FILL_AREA(#346);
#346=FILL_AREA_STYLE('',(#347));
#347=FILL_AREA_STYLE_COLOUR('',#348);
#348=COLOUR_RGB('',0.615686274509804,0.811764705882353,0.929411764705882);
#349=MANIFOLD_SOLID_BREP('Part 1',#340);
#350=SHAPE_DEFINITION_REPRESENTATION(#594,#351);
#351=SHAPE_REPRESENTATION('Part 1',(#352),#589);
#352=AXIS2_PLACEMENT_3D('',#493,#391,#392);
#353=AXIS2_PLACEMENT_3D('',#494,#393,#394);
#354=AXIS2_PLACEMENT_3D('',#503,#399,#400);
#355=AXIS2_PLACEMENT_3D('',#504,#401,#402);
#356=AXIS2_PLACEMENT_3D('',#508,#404,#405);
#357=AXIS2_PLACEMENT_3D('',#509,#406,#407);
#358=AXIS2_PLACEMENT_3D('',#515,#411,#412);
#359=AXIS2_PLACEMENT_3D('',#524,#417,#418);
#360=AXIS2_PLACEMENT_3D('',#533,#423,#424);
#361=AXIS2_PLACEMENT_3D('',#534,#425,#426);
#362=AXIS2_PLACEMENT_3D('',#538,#428,#429);
#363=AXIS2_PLACEMENT_3D('',#539,#430,#431);
#364=AXIS2_PLACEMENT_3D('',#545,#435,#436);
#365=AXIS2_PLACEMENT_3D('',#546,#437,#438);
#366=AXIS2_PLACEMENT_3D('',#548,#439,#440);
#367=AXIS2_PLACEMENT_3D('',#550,#441,#442);
#368=AXIS2_PLACEMENT_3D('',#559,#447,#448);
#369=AXIS2_PLACEMENT_3D('',#560,#449,#450);
#370=AXIS2_PLACEMENT_3D('',#562,#451,#452);
#371=AXIS2_PLACEMENT_3D('',#564,#453,#454);
#372=AXIS2_PLACEMENT_3D('',#565,#455,#456);
#373=AXIS2_PLACEMENT_3D('',#567,#457,#458);
#374=AXIS2_PLACEMENT_3D('',#569,#459,#460);
#375=AXIS2_PLACEMENT_3D('',#570,#461,#462);
#376=AXIS2_PLACEMENT_3D('',#572,#463,#464);
#377=AXIS2_PLACEMENT_3D('',#574,#465,#466);
#378=AXIS2_PLACEMENT_3D('',#575,#467,#468);
#379=AXIS2_PLACEMENT_3D('',#576,#469,#470);
#380=AXIS2_PLACEMENT_3D('',#577,#471,#472);
#381=AXIS2_PLACEMENT_3D('',#578,#473,#474);
#382=AXIS2_PLACEMENT_3D('',#579,#475,#476);
#383=AXIS2_PLACEMENT_3D('',#580,#477,#478);
#384=AXIS2_PLACEMENT_3D('',#581,#479,#480);
#385=AXIS2_PLACEMENT_3D('',#582,#481,#482);
#386=AXIS2_PLACEMENT_3D('',#583,#483,#484);
#387=AXIS2_PLACEMENT_3D('',#584,#485,#486);
#388=AXIS2_PLACEMENT_3D('',#585,#487,#488);
#389=AXIS2_PLACEMENT_3D('',#586,#489,#490);
#390=AXIS2_PLACEMENT_3D('',#587,#491,#492);
#391=DIRECTION('',(0.,0.,1.));
#392=DIRECTION('',(1.,0.,0.));
#393=DIRECTION('',(-0.508129978984152,0.8612803982778,0.));
#394=DIRECTION('',(-0.8612803982778,-0.508129978984152,0.));
#395=DIRECTION('',(0.8612803982778,0.508129978984152,0.));
#396=DIRECTION('',(0.,0.,-1.));
#397=DIRECTION('',(0.8612803982778,0.508129978984152,0.));
#398=DIRECTION('',(0.,0.,-1.));
#399=DIRECTION('',(0.,0.,-1.));
#400=DIRECTION('',(-1.,0.,0.));
#401=DIRECTION('',(0.,0.,1.));
#402=DIRECTION('',(1.,0.,0.));
#403=DIRECTION('',(0.,0.,-1.));
#404=DIRECTION('',(0.,0.,1.));
#405=DIRECTION('',(1.,0.,0.));
#406=DIRECTION('',(0.508129978984152,0.8612803982778,0.));
#407=DIRECTION('',(-0.8612803982778,0.508129978984152,0.));
#408=DIRECTION('',(0.8612803982778,-0.508129978984152,0.));
#409=DIRECTION('',(0.,0.,-1.));
#410=DIRECTION('',(0.8612803982778,-0.508129978984152,0.));
#411=DIRECTION('',(0.,1.,0.));
#412=DIRECTION('',(0.,0.,1.));
#413=DIRECTION('',(1.,0.,0.));
#414=DIRECTION('',(0.,0.,-1.));
#415=DIRECTION('',(1.,0.,0.));
#416=DIRECTION('',(0.,0.,-1.));
#417=DIRECTION('',(0.508129978984152,-0.8612803982778,0.));
#418=DIRECTION('',(0.8612803982778,0.508129978984152,0.));
#419=DIRECTION('',(-0.8612803982778,-0.508129978984152,0.));
#420=DIRECTION('',(0.,0.,-1.));
#421=DIRECTION('',(-0.8612803982778,-0.508129978984152,0.));
#422=DIRECTION('',(0.,0.,-1.));
#423=DIRECTION('',(0.,0.,-1.));
#424=DIRECTION('',(-1.,0.,0.));
#425=DIRECTION('',(0.,0.,1.));
#426=DIRECTION('',(1.,0.,0.));
#427=DIRECTION('',(0.,0.,-1.));
#428=DIRECTION('',(0.,0.,1.));
#429=DIRECTION('',(1.,0.,0.));
#430=DIRECTION('',(-0.508129978984152,-0.8612803982778,0.));
#431=DIRECTION('',(0.8612803982778,-0.508129978984152,0.));
#432=DIRECTION('',(-0.8612803982778,0.508129978984152,0.));
#433=DIRECTION('',(0.,0.,-1.));
#434=DIRECTION('',(-0.8612803982778,0.508129978984152,0.));
#435=DIRECTION('',(0.,0.,-1.));
#436=DIRECTION('',(-1.,0.,0.));
#437=DIRECTION('',(0.,0.,-1.));
#438=DIRECTION('',(1.,0.,0.));
#439=DIRECTION('',(0.,0.,-1.));
#440=DIRECTION('',(1.,0.,0.));
#441=DIRECTION('',(0.,-1.,0.));
#442=DIRECTION('',(0.,0.,-1.));
#443=DIRECTION('',(-1.,0.,0.));
#444=DIRECTION('',(0.,0.,-1.));
#445=DIRECTION('',(-1.,0.,0.));
#446=DIRECTION('',(0.,0.,-1.));
#447=DIRECTION('',(0.,0.,-1.));
#448=DIRECTION('',(-1.,0.,0.));
#449=DIRECTION('',(0.,0.,1.));
#450=DIRECTION('',(1.,0.,0.));
#451=DIRECTION('',(0.,0.,1.));
#452=DIRECTION('',(1.,0.,0.));
#453=DIRECTION('',(0.,0.,-1.));
#454=DIRECTION('',(-1.,0.,0.));
#455=DIRECTION('',(0.,0.,1.));
#456=DIRECTION('',(1.,0.,0.));
#457=DIRECTION('',(0.,0.,1.));
#458=DIRECTION('',(1.,0.,0.));
#459=DIRECTION('',(0.,0.,-1.));
#460=DIRECTION('',(-1.,0.,0.));
#461=DIRECTION('',(0.,0.,1.));
#462=DIRECTION('',(1.,0.,0.));
#463=DIRECTION('',(0.,0.,1.));
#464=DIRECTION('',(1.,0.,0.));
#465=DIRECTION('',(0.,0.,1.));
#466=DIRECTION('',(1.,0.,0.));
#467=DIRECTION('',(0.,0.,1.));
#468=DIRECTION('',(1.,0.,0.));
#469=DIRECTION('',(0.,0.,1.));
#470=DIRECTION('',(1.,0.,0.));
#471=DIRECTION('',(0.,0.,1.));
#472=DIRECTION('',(1.,0.,0.));
#473=DIRECTION('',(0.,0.,1.));
#474=DIRECTION('',(1.,0.,0.));
#475=DIRECTION('',(0.,0.,1.));
#476=DIRECTION('',(1.,0.,0.));
#477=DIRECTION('',(0.,0.,1.));
#478=DIRECTION('',(1.,0.,0.));
#479=DIRECTION('',(0.,0.,1.));
#480=DIRECTION('',(1.,0.,0.));
#481=DIRECTION('',(0.,0.,1.));
#482=DIRECTION('',(1.,0.,0.));
#483=DIRECTION('',(0.,0.,1.));
#484=DIRECTION('',(1.,0.,0.));
#485=DIRECTION('',(0.,0.,-1.));
#486=DIRECTION('',(-1.,0.,0.));
#487=DIRECTION('',(0.,0.,1.));
#488=DIRECTION('',(1.,0.,0.));
#489=DIRECTION('',(0.,0.,-1.));
#490=DIRECTION('',(-1.,0.,0.));
#491=DIRECTION('',(0.,0.,1.));
#492=DIRECTION('',(1.,0.,0.));
#493=CARTESIAN_POINT('',(0.,0.,0.));
#494=CARTESIAN_POINT('',(0.0380406498949208,-0.016306401991389,0.005));
#495=CARTESIAN_POINT('',(0.0380406498949208,-0.016306401991389,0.005));
#496=CARTESIAN_POINT('',(0.0273512974782375,-0.022612803982778,0.005));
#497=CARTESIAN_POINT('',(0.0510812997898415,-0.008612803982778,0.005));
#498=CARTESIAN_POINT('',(0.0273512974782375,-0.022612803982778,0.));
#499=CARTESIAN_POINT('',(0.0273512974782375,-0.022612803982778,0.));
#500=CARTESIAN_POINT('',(0.0380406498949208,-0.016306401991389,0.));
#501=CARTESIAN_POINT('',(0.0510812997898415,-0.008612803982778,0.));
#502=CARTESIAN_POINT('',(0.0510812997898415,-0.008612803982778,0.005));
#503=CARTESIAN_POINT('',(0.046,-1.65322284599014E-17,0.005));
#504=CARTESIAN_POINT('',(0.046,-1.65322284599014E-17,0.));
#505=CARTESIAN_POINT('',(0.0510812997898415,0.008612803982778,0.));
#506=CARTESIAN_POINT('',(0.0510812997898415,0.008612803982778,0.005));
#507=CARTESIAN_POINT('',(0.0510812997898415,0.008612803982778,0.005));
#508=CARTESIAN_POINT('',(0.046,-1.65322284599014E-17,0.005));
#509=CARTESIAN_POINT('',(0.0380406498949208,0.016306401991389,0.005));
#510=CARTESIAN_POINT('',(0.0380406498949208,0.016306401991389,0.));
#511=CARTESIAN_POINT('',(0.0273512974782375,0.022612803982778,0.));
#512=CARTESIAN_POINT('',(0.0273512974782375,0.022612803982778,0.005));
#513=CARTESIAN_POINT('',(0.0273512974782375,0.022612803982778,0.005));
#514=CARTESIAN_POINT('',(0.0380406498949208,0.016306401991389,0.005));
#515=CARTESIAN_POINT('',(0.0125,0.024,0.005));
#516=CARTESIAN_POINT('',(0.0125,0.024,0.));
#517=CARTESIAN_POINT('',(-0.0222699976883961,0.024,0.));
#518=CARTESIAN_POINT('',(0.0222699976883961,0.024,0.));
#519=CARTESIAN_POINT('',(-0.0222699976883961,0.024,0.005));
#520=CARTESIAN_POINT('',(-0.0222699976883961,0.024,0.005));
#521=CARTESIAN_POINT('',(0.0125,0.024,0.005));
#522=CARTESIAN_POINT('',(0.0222699976883961,0.024,0.005));
#523=CARTESIAN_POINT('',(0.0222699976883961,0.024,0.005));
#524=CARTESIAN_POINT('',(-0.0380406498949208,0.016306401991389,0.005));
#525=CARTESIAN_POINT('',(-0.0380406498949208,0.016306401991389,0.005));
#526=CARTESIAN_POINT('',(-0.0273512974782375,0.022612803982778,0.005));
#527=CARTESIAN_POINT('',(-0.0510812997898415,0.008612803982778,0.005));
#528=CARTESIAN_POINT('',(-0.0273512974782375,0.022612803982778,0.));
#529=CARTESIAN_POINT('',(-0.0273512974782375,0.022612803982778,0.));
#530=CARTESIAN_POINT('',(-0.0380406498949208,0.016306401991389,0.));
#531=CARTESIAN_POINT('',(-0.0510812997898415,0.008612803982778,0.));
#532=CARTESIAN_POINT('',(-0.0510812997898415,0.008612803982778,0.005));
#533=CARTESIAN_POINT('',(-0.046,0.,0.005));
#534=CARTESIAN_POINT('',(-0.046,0.,0.));
#535=CARTESIAN_POINT('',(-0.0510812997898415,-0.008612803982778,0.));
#536=CARTESIAN_POINT('',(-0.0510812997898415,-0.008612803982778,0.005));
#537=CARTESIAN_POINT('',(-0.0510812997898415,-0.008612803982778,0.005));
#538=CARTESIAN_POINT('',(-0.046,0.,0.005));
#539=CARTESIAN_POINT('',(-0.0380406498949208,-0.016306401991389,0.005));
#540=CARTESIAN_POINT('',(-0.0380406498949208,-0.016306401991389,0.));
#541=CARTESIAN_POINT('',(-0.0273512974782375,-0.022612803982778,0.));
#542=CARTESIAN_POINT('',(-0.0273512974782375,-0.022612803982778,0.005));
#543=CARTESIAN_POINT('',(-0.0273512974782375,-0.022612803982778,0.005));
#544=CARTESIAN_POINT('',(-0.0380406498949208,-0.016306401991389,0.005));
#545=CARTESIAN_POINT('',(-0.046,3.67394039744206E-18,0.005));
#546=CARTESIAN_POINT('',(-0.046,3.67394039744206E-18,0.005));
#547=CARTESIAN_POINT('',(-0.042,3.67394039744206E-18,0.005));
#548=CARTESIAN_POINT('',(-0.046,3.67394039744206E-18,0.));
#549=CARTESIAN_POINT('',(-0.042,3.67394039744206E-18,0.));
#550=CARTESIAN_POINT('',(-0.0125,-0.024,0.005));
#551=CARTESIAN_POINT('',(-0.0125,-0.024,0.005));
#552=CARTESIAN_POINT('',(0.0222699976883961,-0.024,0.005));
#553=CARTESIAN_POINT('',(-0.0222699976883961,-0.024,0.005));
#554=CARTESIAN_POINT('',(-0.0222699976883961,-0.024,0.005));
#555=CARTESIAN_POINT('',(-0.0222699976883961,-0.024,0.));
#556=CARTESIAN_POINT('',(-0.0125,-0.024,0.));
#557=CARTESIAN_POINT('',(0.0222699976883961,-0.024,0.));
#558=CARTESIAN_POINT('',(0.0222699976883961,-0.024,0.005));
#559=CARTESIAN_POINT('',(-0.018,-9.79717439317882E-19,0.005));
#560=CARTESIAN_POINT('',(-0.018,-9.79717439317882E-19,0.005));
#561=CARTESIAN_POINT('',(-0.002,-9.79717439317882E-19,0.005));
#562=CARTESIAN_POINT('',(-0.018,-9.79717439317882E-19,0.));
#563=CARTESIAN_POINT('',(-0.002,-9.79717439317882E-19,0.));
#564=CARTESIAN_POINT('',(0.018,9.79717439317882E-19,0.005));
#565=CARTESIAN_POINT('',(0.018,9.79717439317882E-19,0.005));
#566=CARTESIAN_POINT('',(0.034,9.79717439317882E-19,0.005));
#567=CARTESIAN_POINT('',(0.018,9.79717439317882E-19,0.));
#568=CARTESIAN_POINT('',(0.034,9.79717439317882E-19,0.));
#569=CARTESIAN_POINT('',(0.046,3.67394039744206E-18,0.005));
#570=CARTESIAN_POINT('',(0.046,3.67394039744206E-18,0.005));
#571=CARTESIAN_POINT('',(0.05,3.67394039744206E-18,0.005));
#572=CARTESIAN_POINT('',(0.046,3.67394039744206E-18,0.));
#573=CARTESIAN_POINT('',(0.05,3.67394039744206E-18,0.));
#574=CARTESIAN_POINT('',(0.,0.,0.005));
#575=CARTESIAN_POINT('',(-0.0222699976883961,-0.014,0.005));
#576=CARTESIAN_POINT('',(0.0222699976883961,-0.014,0.005));
#577=CARTESIAN_POINT('',(0.0222699976883961,0.014,0.005));
#578=CARTESIAN_POINT('',(-0.0222699976883961,0.014,0.005));
#579=CARTESIAN_POINT('',(0.,0.,0.));
#580=CARTESIAN_POINT('',(-0.0222699976883961,-0.014,0.));
#581=CARTESIAN_POINT('',(-0.0222699976883961,0.014,0.));
#582=CARTESIAN_POINT('',(0.0222699976883961,0.014,0.));
#583=CARTESIAN_POINT('',(0.0222699976883961,-0.014,0.));
#584=CARTESIAN_POINT('',(-0.0222699976883961,-0.014,0.005));
#585=CARTESIAN_POINT('',(-0.0222699976883961,0.014,0.005));
#586=CARTESIAN_POINT('',(0.0222699976883961,0.014,0.005));
#587=CARTESIAN_POINT('',(0.0222699976883961,-0.014,0.005));
#588=MECHANICAL_DESIGN_GEOMETRIC_PRESENTATION_REPRESENTATION('',(#341),
#589);
#589=(
GEOMETRIC_REPRESENTATION_CONTEXT(3)
GLOBAL_UNCERTAINTY_ASSIGNED_CONTEXT((#590))
GLOBAL_UNIT_ASSIGNED_CONTEXT((#593,#592,#591))
REPRESENTATION_CONTEXT('Part 1','TOP_LEVEL_ASSEMBLY_PART')
);
#590=UNCERTAINTY_MEASURE_WITH_UNIT(LENGTH_MEASURE(5.E-6),#593,
'DISTANCE_ACCURACY_VALUE','Maximum Tolerance applied to model');
#591=(
NAMED_UNIT(*)
SI_UNIT($,.STERADIAN.)
SOLID_ANGLE_UNIT()
);
#592=(
NAMED_UNIT(*)
PLANE_ANGLE_UNIT()
SI_UNIT($,.RADIAN.)
);
#593=(
LENGTH_UNIT()
NAMED_UNIT(*)
SI_UNIT($,.METRE.)
);
#594=PRODUCT_DEFINITION_SHAPE('','',#595);
#595=PRODUCT_DEFINITION('','',#597,#596);
#596=PRODUCT_DEFINITION_CONTEXT('',#603,'design');
#597=PRODUCT_DEFINITION_FORMATION_WITH_SPECIFIED_SOURCE('','',#599,
 .NOT_KNOWN.);
#598=PRODUCT_RELATED_PRODUCT_CATEGORY('','',(#599));
#599=PRODUCT('Part 1','Part 1','Part 1',(#601));
#600=PRODUCT_CATEGORY('','');
#601=PRODUCT_CONTEXT('',#603,'mechanical');
#602=APPLICATION_PROTOCOL_DEFINITION('international standard',
'ap242_managed_model_based_3d_engineering',2011,#603);
#603=APPLICATION_CONTEXT('managed model based 3d engineering');
ENDSEC;
END-ISO-10303-21;
