ISO-10303-21;
HEADER;
FILE_DESCRIPTION(('STEP AP214'),'1');
FILE_NAME('e rabatteur.stp','2024-03-22T14:32:32',(' '),(' '),'Spatial InterOp 3D',' ',' ');
FILE_SCHEMA(('AUTOMOTIVE_DESIGN { 1 0 10303 214 1 1 1 1 }'));
ENDSEC;
DATA;
#1=MECHANICAL_DESIGN_GEOMETRIC_PRESENTATION_REPRESENTATION(' ',(#58,#59,#60,#61,#62,#63,#64,#65,#66),#6);
#2=PRODUCT_DEFINITION_CONTEXT('',#67,'design');
#3=APPLICATION_PROTOCOL_DEFINITION('INTERNATIONAL STANDARD','automotive_design',1994,#67);
#4=PRODUCT_CATEGORY_RELATIONSHIP('NONE','NONE',#68,#69);
#5=SHAPE_DEFINITION_REPRESENTATION(#70,#71);
#6= (GEOMETRIC_REPRESENTATION_CONTEXT(3)GLOBAL_UNCERTAINTY_ASSIGNED_CONTEXT((#74))GLOBAL_UNIT_ASSIGNED_CONTEXT((#76,#77,#78))REPRESENTATION_CONTEXT('NONE','WORKSPACE'));
#7=PROPERTY_DEFINITION_REPRESENTATION(#80,#81);
#8=GENERAL_PROPERTY_ASSOCIATION('','',#82,#80);
#9=PROPERTY_DEFINITION_REPRESENTATION(#83,#84);
#10=GENERAL_PROPERTY_ASSOCIATION('','',#85,#83);
#11=PROPERTY_DEFINITION_REPRESENTATION(#86,#87);
#12=GENERAL_PROPERTY_ASSOCIATION('','',#88,#86);
#13=PROPERTY_DEFINITION_REPRESENTATION(#89,#90);
#14=GENERAL_PROPERTY_ASSOCIATION('','',#91,#89);
#15=PROPERTY_DEFINITION_REPRESENTATION(#92,#93);
#16=GENERAL_PROPERTY_ASSOCIATION('','',#94,#92);
#17=PROPERTY_DEFINITION_REPRESENTATION(#95,#96);
#18=GENERAL_PROPERTY_ASSOCIATION('','',#97,#95);
#19=PROPERTY_DEFINITION_REPRESENTATION(#98,#99);
#20=GENERAL_PROPERTY_ASSOCIATION('','',#100,#98);
#21=PROPERTY_DEFINITION_REPRESENTATION(#101,#102);
#22=GENERAL_PROPERTY_ASSOCIATION('','',#103,#101);
#23=PROPERTY_DEFINITION_REPRESENTATION(#104,#105);
#24=GENERAL_PROPERTY_ASSOCIATION('','',#106,#104);
#25=PROPERTY_DEFINITION_REPRESENTATION(#107,#108);
#26=GENERAL_PROPERTY_ASSOCIATION('','',#109,#107);
#27=PROPERTY_DEFINITION_REPRESENTATION(#110,#111);
#28=GENERAL_PROPERTY_ASSOCIATION('','',#112,#110);
#29=PROPERTY_DEFINITION_REPRESENTATION(#113,#114);
#30=GENERAL_PROPERTY_ASSOCIATION('','',#115,#113);
#31=PROPERTY_DEFINITION_REPRESENTATION(#116,#117);
#32=GENERAL_PROPERTY_ASSOCIATION('','',#118,#116);
#33=PROPERTY_DEFINITION_REPRESENTATION(#119,#120);
#34=GENERAL_PROPERTY_ASSOCIATION('','',#121,#119);
#35=PROPERTY_DEFINITION_REPRESENTATION(#122,#123);
#36=GENERAL_PROPERTY_ASSOCIATION('','',#124,#122);
#37=PROPERTY_DEFINITION_REPRESENTATION(#125,#126);
#38=GENERAL_PROPERTY_ASSOCIATION('','',#127,#125);
#39=PROPERTY_DEFINITION_REPRESENTATION(#128,#129);
#40=GENERAL_PROPERTY_ASSOCIATION('','',#130,#128);
#41=PROPERTY_DEFINITION_REPRESENTATION(#131,#132);
#42=GENERAL_PROPERTY_ASSOCIATION('','',#133,#131);
#43=PROPERTY_DEFINITION_REPRESENTATION(#134,#135);
#44=GENERAL_PROPERTY_ASSOCIATION('','',#136,#134);
#45=PROPERTY_DEFINITION_REPRESENTATION(#137,#138);
#46=GENERAL_PROPERTY_ASSOCIATION('','',#139,#137);
#47=PROPERTY_DEFINITION_REPRESENTATION(#140,#141);
#48=GENERAL_PROPERTY_ASSOCIATION('','',#142,#140);
#49=PROPERTY_DEFINITION_REPRESENTATION(#143,#144);
#50=GENERAL_PROPERTY_ASSOCIATION('','',#145,#143);
#51=PROPERTY_DEFINITION_REPRESENTATION(#146,#147);
#52=GENERAL_PROPERTY_ASSOCIATION('','',#148,#146);
#53=PROPERTY_DEFINITION_REPRESENTATION(#149,#150);
#54=GENERAL_PROPERTY_ASSOCIATION('','',#151,#149);
#58=STYLED_ITEM('',(#152),#153);
#59=STYLED_ITEM('',(#154),#155);
#60=STYLED_ITEM('',(#156),#157);
#61=STYLED_ITEM('',(#158),#159);
#62=STYLED_ITEM('',(#160),#161);
#63=STYLED_ITEM('',(#162),#163);
#64=STYLED_ITEM('',(#164),#165);
#65=STYLED_ITEM('',(#166),#167);
#66=STYLED_ITEM('',(#168),#169);
#67=APPLICATION_CONTEXT(' ');
#68=PRODUCT_CATEGORY('part','NONE');
#69=PRODUCT_RELATED_PRODUCT_CATEGORY('detail',' ',(#170));
#70=PRODUCT_DEFINITION_SHAPE('NONE','NONE',#171);
#71=ADVANCED_BREP_SHAPE_REPRESENTATION('bobine but\X2\00E9\X0\e rabatteur',(#169,#172),#6);
#74=UNCERTAINTY_MEASURE_WITH_UNIT(LENGTH_MEASURE(0.001),#76,'','');
#76= (CONVERSION_BASED_UNIT('MILLIMETRE',#175)LENGTH_UNIT()NAMED_UNIT(#178));
#77= (NAMED_UNIT(#180)PLANE_ANGLE_UNIT()SI_UNIT($,.RADIAN.));
#78= (NAMED_UNIT(#180)SOLID_ANGLE_UNIT()SI_UNIT($,.STERADIAN.));
#80=PROPERTY_DEFINITION('PdmObjectId','',#171);
#81=REPRESENTATION('',(#186),#6);
#82=GENERAL_PROPERTY('','PdmObjectId','');
#83=PROPERTY_DEFINITION('Type de Production','',#171);
#84=REPRESENTATION('',(#187),#6);
#85=GENERAL_PROPERTY('','Type de Production','');
#86=PROPERTY_DEFINITION('Nom','',#171);
#87=REPRESENTATION('',(#188),#6);
#88=GENERAL_PROPERTY('','Nom','');
#89=PROPERTY_DEFINITION('Type de brut','',#171);
#90=REPRESENTATION('',(#189),#6);
#91=GENERAL_PROPERTY('','Type de brut','');
#92=PROPERTY_DEFINITION('Dimensions du brut','',#171);
#93=REPRESENTATION('',(#190),#6);
#94=GENERAL_PROPERTY('','Dimensions du brut','');
#95=PROPERTY_DEFINITION('Nom du brut','',#171);
#96=REPRESENTATION('',(#191),#6);
#97=GENERAL_PROPERTY('','Nom du brut','');
#98=PROPERTY_DEFINITION('D\X2\00E9\X0\signation du brut','',#171);
#99=REPRESENTATION('',(#192),#6);
#100=GENERAL_PROPERTY('','D\X2\00E9\X0\signation du brut','');
#101=PROPERTY_DEFINITION('R\X2\00E9\X0\f\X2\00E9\X0\rence du brut','',#171);
#102=REPRESENTATION('',(#193),#6);
#103=GENERAL_PROPERTY('','R\X2\00E9\X0\f\X2\00E9\X0\rence du brut','');
#104=PROPERTY_DEFINITION('R\X2\00E9\X0\vision majeure du brut','',#171);
#105=REPRESENTATION('',(#194),#6);
#106=GENERAL_PROPERTY('','R\X2\00E9\X0\vision majeure du brut','');
#107=PROPERTY_DEFINITION('D\X2\00E9\X0\signation de la r\X2\00E8\X0\gle de mise \X2\00E0\X0\ plat','',#171);
#108=REPRESENTATION('',(#195),#6);
#109=GENERAL_PROPERTY('','D\X2\00E9\X0\signation de la r\X2\00E8\X0\gle de mise \X2\00E0\X0\ plat','');
#110=PROPERTY_DEFINITION('R\X2\00E9\X0\f\X2\00E9\X0\rence de la r\X2\00E8\X0\gle de mise \X2\00E0\X0\ plat','',#171);
#111=REPRESENTATION('',(#196),#6);
#112=GENERAL_PROPERTY('','R\X2\00E9\X0\f\X2\00E9\X0\rence de la r\X2\00E8\X0\gle de mise \X2\00E0\X0\ plat','');
#113=PROPERTY_DEFINITION('Outil de pliage','',#171);
#114=REPRESENTATION('',(#197),#6);
#115=GENERAL_PROPERTY('','Outil de pliage','');
#116=PROPERTY_DEFINITION('D\X2\00E9\X0\signation du mat\X2\00E9\X0\riau','',#171);
#117=REPRESENTATION('',(#198),#6);
#118=GENERAL_PROPERTY('','D\X2\00E9\X0\signation du mat\X2\00E9\X0\riau','');
#119=PROPERTY_DEFINITION('Nom du mat\X2\00E9\X0\riau','',#171);
#120=REPRESENTATION('',(#199),#6);
#121=GENERAL_PROPERTY('','Nom du mat\X2\00E9\X0\riau','');
#122=PROPERTY_DEFINITION('BrutFinal','',#171);
#123=REPRESENTATION('',(#200),#6);
#124=GENERAL_PROPERTY('','BrutFinal','');
#125=PROPERTY_DEFINITION('BrutCylindrique','',#171);
#126=REPRESENTATION('',(#201),#6);
#127=GENERAL_PROPERTY('','BrutCylindrique','');
#128=PROPERTY_DEFINITION('Diam\X2\00E8\X0\treCylindreFormat\X2\00E9\X0\','',#171);
#129=REPRESENTATION('',(#202),#6);
#130=GENERAL_PROPERTY('','Diam\X2\00E8\X0\treCylindreFormat\X2\00E9\X0\','');
#131=PROPERTY_DEFINITION('LongueurCylindreFormat\X2\00E9\X0\','',#171);
#132=REPRESENTATION('',(#203),#6);
#133=GENERAL_PROPERTY('','LongueurCylindreFormat\X2\00E9\X0\','');
#134=PROPERTY_DEFINITION('BrutRectangulaire','',#171);
#135=REPRESENTATION('',(#204),#6);
#136=GENERAL_PROPERTY('','BrutRectangulaire','');
#137=PROPERTY_DEFINITION('TailleXBoiteFormat\X2\00E9\X0\','',#171);
#138=REPRESENTATION('',(#205),#6);
#139=GENERAL_PROPERTY('','TailleXBoiteFormat\X2\00E9\X0\','');
#140=PROPERTY_DEFINITION('TailleYBoiteFormat\X2\00E9\X0\','',#171);
#141=REPRESENTATION('',(#206),#6);
#142=GENERAL_PROPERTY('','TailleYBoiteFormat\X2\00E9\X0\','');
#143=PROPERTY_DEFINITION('TailleZBoiteFormat\X2\00E9\X0\','',#171);
#144=REPRESENTATION('',(#207),#6);
#145=GENERAL_PROPERTY('','TailleZBoiteFormat\X2\00E9\X0\','');
#146=PROPERTY_DEFINITION('CreationDate','',#171);
#147=REPRESENTATION('',(#208),#6);
#148=GENERAL_PROPERTY('','CreationDate','');
#149=PROPERTY_DEFINITION('Minor Revision','',#171);
#150=REPRESENTATION('',(#209),#6);
#151=GENERAL_PROPERTY('','Minor Revision','');
#152=PRESENTATION_STYLE_ASSIGNMENT((#210));
#153=ADVANCED_FACE('',(#211,#212),#213,.F.);
#154=PRESENTATION_STYLE_ASSIGNMENT((#214));
#155=ADVANCED_FACE('',(#215,#216),#217,.F.);
#156=PRESENTATION_STYLE_ASSIGNMENT((#218));
#157=ADVANCED_FACE('',(#219,#220),#221,.T.);
#158=PRESENTATION_STYLE_ASSIGNMENT((#222));
#159=ADVANCED_FACE('',(#223,#224),#225,.T.);
#160=PRESENTATION_STYLE_ASSIGNMENT((#226));
#161=ADVANCED_FACE('',(#227,#228),#229,.F.);
#162=PRESENTATION_STYLE_ASSIGNMENT((#230));
#163=ADVANCED_FACE('',(#231,#232),#233,.T.);
#164=PRESENTATION_STYLE_ASSIGNMENT((#234));
#165=ADVANCED_FACE('',(#235,#236),#237,.F.);
#166=PRESENTATION_STYLE_ASSIGNMENT((#238));
#167=ADVANCED_FACE('',(#239,#240),#241,.T.);
#168=PRESENTATION_STYLE_ASSIGNMENT((#242));
#169=MANIFOLD_SOLID_BREP('bobine but\X2\00E9\X0\e rabatteur',#243);
#170=PRODUCT('bobine but\X2\00E9\X0\e rabatteur','FAA112.01','bobine but\X2\00E9\X0\e rabatteur',(#244));
#171=PRODUCT_DEFINITION('','NONE',#245,#2);
#172=AXIS2_PLACEMENT_3D('',#246,#247,#248);
#175=LENGTH_MEASURE_WITH_UNIT(LENGTH_MEASURE(1.0),#249);
#178=DIMENSIONAL_EXPONENTS(1.0,0.0,0.0,0.0,0.0,0.0,0.0);
#180=DIMENSIONAL_EXPONENTS(0.0,0.0,0.0,0.0,0.0,0.0,0.0);
#186=DESCRIPTIVE_REPRESENTATION_ITEM('','19_9768470d-502d-45f0-9806-c815eb63f53b&2_38_14_0');
#187=DESCRIPTIVE_REPRESENTATION_ITEM('','Usinage');
#188=DESCRIPTIVE_REPRESENTATION_ITEM('','bobine but\X2\00E9\X0\e rabatteur');
#189=DESCRIPTIVE_REPRESENTATION_ITEM('','Non classifi\X2\00E9\X0\');
#190=DESCRIPTIVE_REPRESENTATION_ITEM('','');
#191=DESCRIPTIVE_REPRESENTATION_ITEM('','-');
#192=DESCRIPTIVE_REPRESENTATION_ITEM('','-');
#193=DESCRIPTIVE_REPRESENTATION_ITEM('','');
#194=DESCRIPTIVE_REPRESENTATION_ITEM('','');
#195=DESCRIPTIVE_REPRESENTATION_ITEM('','Taleau pliage');
#196=DESCRIPTIVE_REPRESENTATION_ITEM('','');
#197=DESCRIPTIVE_REPRESENTATION_ITEM('','<non sp\X2\00E9\X0\cifi\X2\00E9\X0\>');
#198=DESCRIPTIVE_REPRESENTATION_ITEM('','Acier E470 EN 10297');
#199=DESCRIPTIVE_REPRESENTATION_ITEM('','Acier E470 EN 10297');
#200=DESCRIPTIVE_REPRESENTATION_ITEM('','-');
#201=DESCRIPTIVE_REPRESENTATION_ITEM('','\X2\00D8\X0\ 35,00 \X2\00D7\X0\ 55,00');
#202=DESCRIPTIVE_REPRESENTATION_ITEM('','35,00');
#203=DESCRIPTIVE_REPRESENTATION_ITEM('','55,00');
#204=DESCRIPTIVE_REPRESENTATION_ITEM('','55,00 \X2\00D7\X0\ 35,00 \X2\00D7\X0\ 35,00');
#205=DESCRIPTIVE_REPRESENTATION_ITEM('','55,00');
#206=DESCRIPTIVE_REPRESENTATION_ITEM('','35,00');
#207=DESCRIPTIVE_REPRESENTATION_ITEM('','35,00');
#208=DESCRIPTIVE_REPRESENTATION_ITEM('','25/05/2023 14:29:30');
#209=DESCRIPTIVE_REPRESENTATION_ITEM('','2');
#210=SURFACE_STYLE_USAGE(.BOTH.,#250);
#211=FACE_BOUND('',#251,.T.);
#212=FACE_OUTER_BOUND('',#252,.T.);
#213=CONICAL_SURFACE('',#253,9.125,0.785398163397448);
#214=SURFACE_STYLE_USAGE(.BOTH.,#254);
#215=FACE_BOUND('',#255,.T.);
#216=FACE_OUTER_BOUND('',#256,.T.);
#217=PLANE('',#257);
#218=SURFACE_STYLE_USAGE(.BOTH.,#258);
#219=FACE_BOUND('',#259,.T.);
#220=FACE_OUTER_BOUND('',#260,.T.);
#221=CONICAL_SURFACE('',#261,15.0,0.785398163397448);
#222=SURFACE_STYLE_USAGE(.BOTH.,#262);
#223=FACE_OUTER_BOUND('',#263,.T.);
#224=FACE_BOUND('',#264,.T.);
#225=CONICAL_SURFACE('',#265,14.0,0.785398163397448);
#226=SURFACE_STYLE_USAGE(.BOTH.,#266);
#227=FACE_OUTER_BOUND('',#267,.T.);
#228=FACE_OUTER_BOUND('',#268,.T.);
#229=CYLINDRICAL_SURFACE('',#269,8.125);
#230=SURFACE_STYLE_USAGE(.BOTH.,#270);
#231=FACE_OUTER_BOUND('',#271,.T.);
#232=FACE_OUTER_BOUND('',#272,.T.);
#233=CYLINDRICAL_SURFACE('',#273,15.0);
#234=SURFACE_STYLE_USAGE(.BOTH.,#274);
#235=FACE_OUTER_BOUND('',#275,.T.);
#236=FACE_BOUND('',#276,.T.);
#237=CONICAL_SURFACE('',#277,8.125,0.785398163397448);
#238=SURFACE_STYLE_USAGE(.BOTH.,#278);
#239=FACE_BOUND('',#279,.T.);
#240=FACE_OUTER_BOUND('',#280,.T.);
#241=PLANE('',#281);
#242=SURFACE_STYLE_USAGE(.BOTH.,#282);
#243=CLOSED_SHELL('',(#153,#155,#157,#159,#161,#163,#165,#167));
#244=PRODUCT_CONTEXT('',#67,'mechanical');
#245=PRODUCT_DEFINITION_FORMATION_WITH_SPECIFIED_SOURCE('A','NONE',#170,.NOT_KNOWN.);
#246=CARTESIAN_POINT('',(0.0,0.0,0.0));
#247=DIRECTION('',(0.0,0.0,1.0));
#248=DIRECTION('',(1.0,0.0,0.0));
#249= (NAMED_UNIT(#178)LENGTH_UNIT()SI_UNIT(.MILLI.,.METRE.));
#250=SURFACE_SIDE_STYLE('',(#284));
#251=EDGE_LOOP('',(#285));
#252=EDGE_LOOP('',(#286));
#253=AXIS2_PLACEMENT_3D('',#287,#288,#289);
#254=SURFACE_SIDE_STYLE('',(#290));
#255=EDGE_LOOP('',(#291));
#256=EDGE_LOOP('',(#292));
#257=AXIS2_PLACEMENT_3D('',#293,#294,#295);
#258=SURFACE_SIDE_STYLE('',(#296));
#259=EDGE_LOOP('',(#297));
#260=EDGE_LOOP('',(#298));
#261=AXIS2_PLACEMENT_3D('',#299,#300,#301);
#262=SURFACE_SIDE_STYLE('',(#302));
#263=EDGE_LOOP('',(#303));
#264=EDGE_LOOP('',(#304));
#265=AXIS2_PLACEMENT_3D('',#305,#306,#307);
#266=SURFACE_SIDE_STYLE('',(#308));
#267=EDGE_LOOP('',(#309));
#268=EDGE_LOOP('',(#310));
#269=AXIS2_PLACEMENT_3D('',#311,#312,#313);
#270=SURFACE_SIDE_STYLE('',(#314));
#271=EDGE_LOOP('',(#315));
#272=EDGE_LOOP('',(#316));
#273=AXIS2_PLACEMENT_3D('',#317,#318,#319);
#274=SURFACE_SIDE_STYLE('',(#320));
#275=EDGE_LOOP('',(#321));
#276=EDGE_LOOP('',(#322));
#277=AXIS2_PLACEMENT_3D('',#323,#324,#325);
#278=SURFACE_SIDE_STYLE('',(#326));
#279=EDGE_LOOP('',(#327));
#280=EDGE_LOOP('',(#328));
#281=AXIS2_PLACEMENT_3D('',#329,#330,#331);
#282=SURFACE_SIDE_STYLE('',(#332));
#284=SURFACE_STYLE_FILL_AREA(#333);
#285=ORIENTED_EDGE('',*,*,#334,.F.);
#286=ORIENTED_EDGE('',*,*,#335,.F.);
#287=CARTESIAN_POINT('',(0.0,0.0,-25.0));
#288=DIRECTION('',(-0.0,0.0,-1.0));
#289=DIRECTION('',(-1.0,0.0,0.0));
#290=SURFACE_STYLE_FILL_AREA(#336);
#291=ORIENTED_EDGE('',*,*,#335,.T.);
#292=ORIENTED_EDGE('',*,*,#337,.T.);
#293=CARTESIAN_POINT('',(0.0,0.0,-25.0));
#294=DIRECTION('',(0.0,0.0,1.0));
#295=DIRECTION('',(1.0,0.0,0.0));
#296=SURFACE_STYLE_FILL_AREA(#338);
#297=ORIENTED_EDGE('',*,*,#337,.F.);
#298=ORIENTED_EDGE('',*,*,#339,.F.);
#299=CARTESIAN_POINT('',(0.0,0.0,-24.0));
#300=DIRECTION('',(-0.0,-0.0,1.0));
#301=DIRECTION('',(1.0,0.0,0.0));
#302=SURFACE_STYLE_FILL_AREA(#340);
#303=ORIENTED_EDGE('',*,*,#341,.F.);
#304=ORIENTED_EDGE('',*,*,#342,.F.);
#305=CARTESIAN_POINT('',(0.0,0.0,25.0));
#306=DIRECTION('',(-0.0,0.0,-1.0));
#307=DIRECTION('',(-1.0,0.0,0.0));
#308=SURFACE_STYLE_FILL_AREA(#343);
#309=ORIENTED_EDGE('',*,*,#344,.T.);
#310=ORIENTED_EDGE('',*,*,#334,.T.);
#311=CARTESIAN_POINT('',(0.0,0.0,-25.0));
#312=DIRECTION('',(0.0,0.0,1.0));
#313=DIRECTION('',(1.0,0.0,0.0));
#314=SURFACE_STYLE_FILL_AREA(#345);
#315=ORIENTED_EDGE('',*,*,#341,.T.);
#316=ORIENTED_EDGE('',*,*,#339,.T.);
#317=CARTESIAN_POINT('',(0.0,0.0,-25.0));
#318=DIRECTION('',(0.0,0.0,1.0));
#319=DIRECTION('',(1.0,0.0,0.0));
#320=SURFACE_STYLE_FILL_AREA(#346);
#321=ORIENTED_EDGE('',*,*,#347,.F.);
#322=ORIENTED_EDGE('',*,*,#344,.F.);
#323=CARTESIAN_POINT('',(0.0,0.0,24.0));
#324=DIRECTION('',(-0.0,-0.0,1.0));
#325=DIRECTION('',(1.0,0.0,0.0));
#326=SURFACE_STYLE_FILL_AREA(#348);
#327=ORIENTED_EDGE('',*,*,#347,.T.);
#328=ORIENTED_EDGE('',*,*,#342,.T.);
#329=CARTESIAN_POINT('',(0.0,0.0,25.0));
#330=DIRECTION('',(0.0,0.0,1.0));
#331=DIRECTION('',(1.0,0.0,0.0));
#332=SURFACE_STYLE_FILL_AREA(#349);
#333=FILL_AREA_STYLE('',(#350));
#334=EDGE_CURVE('',#351,#351,#352,.F.);
#335=EDGE_CURVE('',#353,#353,#354,.T.);
#336=FILL_AREA_STYLE('',(#355));
#337=EDGE_CURVE('',#356,#356,#357,.F.);
#338=FILL_AREA_STYLE('',(#358));
#339=EDGE_CURVE('',#359,#359,#360,.T.);
#340=FILL_AREA_STYLE('',(#361));
#341=EDGE_CURVE('',#362,#362,#363,.F.);
#342=EDGE_CURVE('',#364,#364,#365,.T.);
#343=FILL_AREA_STYLE('',(#366));
#344=EDGE_CURVE('',#367,#367,#368,.T.);
#345=FILL_AREA_STYLE('',(#369));
#346=FILL_AREA_STYLE('',(#370));
#347=EDGE_CURVE('',#371,#371,#372,.F.);
#348=FILL_AREA_STYLE('',(#373));
#349=FILL_AREA_STYLE('',(#374));
#350=FILL_AREA_STYLE_COLOUR('',#375);
#351=VERTEX_POINT('',#376);
#352=CIRCLE('',#377,8.125);
#353=VERTEX_POINT('',#378);
#354=CIRCLE('',#379,9.125);
#355=FILL_AREA_STYLE_COLOUR('',#380);
#356=VERTEX_POINT('',#381);
#357=CIRCLE('',#382,14.0);
#358=FILL_AREA_STYLE_COLOUR('',#383);
#359=VERTEX_POINT('',#384);
#360=CIRCLE('',#385,15.0);
#361=FILL_AREA_STYLE_COLOUR('',#386);
#362=VERTEX_POINT('',#387);
#363=CIRCLE('',#388,15.0);
#364=VERTEX_POINT('',#389);
#365=CIRCLE('',#390,14.0);
#366=FILL_AREA_STYLE_COLOUR('',#391);
#367=VERTEX_POINT('',#392);
#368=CIRCLE('',#393,8.125);
#369=FILL_AREA_STYLE_COLOUR('',#394);
#370=FILL_AREA_STYLE_COLOUR('',#395);
#371=VERTEX_POINT('',#396);
#372=CIRCLE('',#397,9.125);
#373=FILL_AREA_STYLE_COLOUR('',#398);
#374=FILL_AREA_STYLE_COLOUR('',#399);
#375=COLOUR_RGB('',0.752941191196442,0.752941191196442,0.752941191196442);
#376=CARTESIAN_POINT('',(8.125,-1.99005104861445E-15,-24.0));
#377=AXIS2_PLACEMENT_3D('',#400,#401,#402);
#378=CARTESIAN_POINT('',(9.125,0.0,-25.0));
#379=AXIS2_PLACEMENT_3D('',#403,#404,#405);
#380=COLOUR_RGB('',0.752941191196442,0.752941191196442,0.752941191196442);
#381=CARTESIAN_POINT('',(14.0,-3.42901103761259E-15,-25.0));
#382=AXIS2_PLACEMENT_3D('',#406,#407,#408);
#383=COLOUR_RGB('',0.752941191196442,0.752941191196442,0.752941191196442);
#384=CARTESIAN_POINT('',(15.0,0.0,-24.0));
#385=AXIS2_PLACEMENT_3D('',#409,#410,#411);
#386=COLOUR_RGB('',0.752941191196442,0.752941191196442,0.752941191196442);
#387=CARTESIAN_POINT('',(15.0,-3.67394039744206E-15,24.0));
#388=AXIS2_PLACEMENT_3D('',#412,#413,#414);
#389=CARTESIAN_POINT('',(14.0,0.0,25.0));
#390=AXIS2_PLACEMENT_3D('',#415,#416,#417);
#391=COLOUR_RGB('',0.752941191196442,0.752941191196442,0.752941191196442);
#392=CARTESIAN_POINT('',(8.125,0.0,24.0));
#393=AXIS2_PLACEMENT_3D('',#418,#419,#420);
#394=COLOUR_RGB('',0.752941191196442,0.752941191196442,0.752941191196442);
#395=COLOUR_RGB('',0.752941191196442,0.752941191196442,0.752941191196442);
#396=CARTESIAN_POINT('',(9.125,-2.23498040844392E-15,25.0));
#397=AXIS2_PLACEMENT_3D('',#421,#422,#423);
#398=COLOUR_RGB('',0.752941191196442,0.752941191196442,0.752941191196442);
#399=COLOUR_RGB('',0.752941191196442,0.752941191196442,0.752941191196442);
#400=CARTESIAN_POINT('',(0.0,0.0,-24.0));
#401=DIRECTION('',(0.0,0.0,1.0));
#402=DIRECTION('',(1.0,0.0,0.0));
#403=CARTESIAN_POINT('',(0.0,0.0,-25.0));
#404=DIRECTION('',(0.0,0.0,1.0));
#405=DIRECTION('',(1.0,0.0,0.0));
#406=CARTESIAN_POINT('',(0.0,0.0,-25.0));
#407=DIRECTION('',(0.0,0.0,1.0));
#408=DIRECTION('',(1.0,0.0,0.0));
#409=CARTESIAN_POINT('',(0.0,0.0,-24.0));
#410=DIRECTION('',(0.0,0.0,1.0));
#411=DIRECTION('',(1.0,0.0,0.0));
#412=CARTESIAN_POINT('',(0.0,0.0,24.0));
#413=DIRECTION('',(0.0,0.0,1.0));
#414=DIRECTION('',(1.0,0.0,0.0));
#415=CARTESIAN_POINT('',(0.0,0.0,25.0));
#416=DIRECTION('',(0.0,0.0,1.0));
#417=DIRECTION('',(1.0,0.0,0.0));
#418=CARTESIAN_POINT('',(0.0,0.0,24.0));
#419=DIRECTION('',(0.0,0.0,1.0));
#420=DIRECTION('',(1.0,0.0,0.0));
#421=CARTESIAN_POINT('',(0.0,0.0,25.0));
#422=DIRECTION('',(0.0,0.0,1.0));
#423=DIRECTION('',(1.0,0.0,0.0));
ENDSEC;
END-ISO-10303-21;
