ISO-10303-21;
HEADER;
/* Generated by software containing ST-Developer
 * from STEP Tools, Inc. (www.steptools.com) 
 */
/* OPTION: using custom renumber hook */

FILE_DESCRIPTION(
/* description */ ('STEP AP242',
'CAx-IF Rec.Pracs.---Representation and Presentation of Product Manufa
cturing Information (PMI)---4.0---2014-10-13',
'CAx-IF Rec.Pracs.---3D Tessellated Geometry---0.4---2014-09-14','2;1'),

/* implementation_level */ '2;1');

FILE_NAME(
/* name */ '6659867357ca903dd246568e',
/* time_stamp */ '2024-05-31T08:12:37Z',
/* author */ (''),
/* organization */ (''),
/* preprocessor_version */ 'ST-DEVELOPER v20',
/* originating_system */ '  ',
/* authorisation */ '  ');

FILE_SCHEMA (('AP242_MANAGED_MODEL_BASED_3D_ENGINEERING_MIM_LF { 1 0 10303 442 1 1 4 }'));
ENDSEC;

DATA;
#10=SHAPE_REPRESENTATION_RELATIONSHIP('','',#281,#11);
#11=ADVANCED_BREP_SHAPE_REPRESENTATION('',(#279),#493);
#12=CONICAL_SURFACE('',#309,0.0155,0.785398163397448);
#13=CONICAL_SURFACE('',#310,0.01,0.785398163397448);
#14=CONICAL_SURFACE('',#311,0.01,0.785398163397448);
#15=CONICAL_SURFACE('',#312,0.0155,0.785398163397448);
#16=CONICAL_SURFACE('',#313,0.0175,0.785398163397448);
#17=CONICAL_SURFACE('',#314,0.012,0.785398163397452);
#18=CONICAL_SURFACE('',#315,0.012,0.78539816339745);
#19=CONICAL_SURFACE('',#316,0.0175,0.785398163397448);
#20=PLANE('',#295);
#21=PLANE('',#302);
#22=PLANE('',#319);
#23=CIRCLE('',#284,0.01);
#24=CIRCLE('',#285,0.01);
#25=CIRCLE('',#287,0.0175);
#26=CIRCLE('',#288,0.0175);
#27=CIRCLE('',#290,0.01);
#28=CIRCLE('',#291,0.01);
#29=CIRCLE('',#293,0.0175);
#30=CIRCLE('',#294,0.0175);
#31=CIRCLE('',#296,0.0075);
#32=CIRCLE('',#297,0.0125);
#33=CIRCLE('',#298,0.012);
#34=CIRCLE('',#299,0.0155);
#35=CIRCLE('',#300,0.012);
#36=CIRCLE('',#301,0.0155);
#37=CIRCLE('',#303,0.0075);
#38=CIRCLE('',#304,0.014);
#39=CIRCLE('',#305,0.012);
#40=CIRCLE('',#306,0.0155);
#41=CIRCLE('',#307,0.012);
#42=CIRCLE('',#308,0.0155);
#43=CIRCLE('',#318,0.014);
#44=CIRCLE('',#320,0.0125);
#45=ORIENTED_EDGE('',*,*,#113,.T.);
#46=ORIENTED_EDGE('',*,*,#114,.F.);
#47=ORIENTED_EDGE('',*,*,#115,.F.);
#48=ORIENTED_EDGE('',*,*,#116,.F.);
#49=ORIENTED_EDGE('',*,*,#117,.T.);
#50=ORIENTED_EDGE('',*,*,#118,.F.);
#51=ORIENTED_EDGE('',*,*,#113,.F.);
#52=ORIENTED_EDGE('',*,*,#119,.F.);
#53=ORIENTED_EDGE('',*,*,#120,.T.);
#54=ORIENTED_EDGE('',*,*,#121,.F.);
#55=ORIENTED_EDGE('',*,*,#117,.F.);
#56=ORIENTED_EDGE('',*,*,#122,.F.);
#57=ORIENTED_EDGE('',*,*,#115,.T.);
#58=ORIENTED_EDGE('',*,*,#123,.F.);
#59=ORIENTED_EDGE('',*,*,#120,.F.);
#60=ORIENTED_EDGE('',*,*,#124,.F.);
#61=ORIENTED_EDGE('',*,*,#125,.T.);
#62=ORIENTED_EDGE('',*,*,#126,.F.);
#63=ORIENTED_EDGE('',*,*,#127,.F.);
#64=ORIENTED_EDGE('',*,*,#128,.F.);
#65=ORIENTED_EDGE('',*,*,#129,.F.);
#66=ORIENTED_EDGE('',*,*,#130,.F.);
#67=ORIENTED_EDGE('',*,*,#131,.F.);
#68=ORIENTED_EDGE('',*,*,#132,.T.);
#69=ORIENTED_EDGE('',*,*,#133,.F.);
#70=ORIENTED_EDGE('',*,*,#134,.F.);
#71=ORIENTED_EDGE('',*,*,#135,.F.);
#72=ORIENTED_EDGE('',*,*,#136,.F.);
#73=ORIENTED_EDGE('',*,*,#137,.T.);
#74=ORIENTED_EDGE('',*,*,#128,.T.);
#75=ORIENTED_EDGE('',*,*,#138,.T.);
#76=ORIENTED_EDGE('',*,*,#119,.T.);
#77=ORIENTED_EDGE('',*,*,#138,.F.);
#78=ORIENTED_EDGE('',*,*,#127,.T.);
#79=ORIENTED_EDGE('',*,*,#139,.T.);
#80=ORIENTED_EDGE('',*,*,#122,.T.);
#81=ORIENTED_EDGE('',*,*,#137,.F.);
#82=ORIENTED_EDGE('',*,*,#116,.T.);
#83=ORIENTED_EDGE('',*,*,#140,.T.);
#84=ORIENTED_EDGE('',*,*,#129,.T.);
#85=ORIENTED_EDGE('',*,*,#139,.F.);
#86=ORIENTED_EDGE('',*,*,#130,.T.);
#87=ORIENTED_EDGE('',*,*,#140,.F.);
#88=ORIENTED_EDGE('',*,*,#124,.T.);
#89=ORIENTED_EDGE('',*,*,#141,.T.);
#90=ORIENTED_EDGE('',*,*,#118,.T.);
#91=ORIENTED_EDGE('',*,*,#142,.T.);
#92=ORIENTED_EDGE('',*,*,#134,.T.);
#93=ORIENTED_EDGE('',*,*,#142,.F.);
#94=ORIENTED_EDGE('',*,*,#121,.T.);
#95=ORIENTED_EDGE('',*,*,#143,.T.);
#96=ORIENTED_EDGE('',*,*,#135,.T.);
#97=ORIENTED_EDGE('',*,*,#141,.F.);
#98=ORIENTED_EDGE('',*,*,#133,.T.);
#99=ORIENTED_EDGE('',*,*,#144,.T.);
#100=ORIENTED_EDGE('',*,*,#114,.T.);
#101=ORIENTED_EDGE('',*,*,#143,.F.);
#102=ORIENTED_EDGE('',*,*,#123,.T.);
#103=ORIENTED_EDGE('',*,*,#144,.F.);
#104=ORIENTED_EDGE('',*,*,#136,.T.);
#105=ORIENTED_EDGE('',*,*,#145,.T.);
#106=ORIENTED_EDGE('',*,*,#132,.F.);
#107=ORIENTED_EDGE('',*,*,#146,.T.);
#108=ORIENTED_EDGE('',*,*,#145,.F.);
#109=ORIENTED_EDGE('',*,*,#146,.F.);
#110=ORIENTED_EDGE('',*,*,#126,.T.);
#111=ORIENTED_EDGE('',*,*,#125,.F.);
#112=ORIENTED_EDGE('',*,*,#131,.T.);
#113=EDGE_CURVE('',#147,#148,#169,.T.);
#114=EDGE_CURVE('',#149,#148,#23,.F.);
#115=EDGE_CURVE('',#150,#149,#170,.T.);
#116=EDGE_CURVE('',#147,#150,#24,.T.);
#117=EDGE_CURVE('',#151,#152,#171,.T.);
#118=EDGE_CURVE('',#148,#152,#25,.T.);
#119=EDGE_CURVE('',#151,#147,#26,.F.);
#120=EDGE_CURVE('',#153,#154,#172,.T.);
#121=EDGE_CURVE('',#152,#154,#27,.F.);
#122=EDGE_CURVE('',#153,#151,#28,.T.);
#123=EDGE_CURVE('',#154,#149,#29,.T.);
#124=EDGE_CURVE('',#150,#153,#30,.F.);
#125=EDGE_CURVE('',#155,#155,#31,.F.);
#126=EDGE_CURVE('',#156,#156,#32,.F.);
#127=EDGE_CURVE('',#157,#158,#33,.F.);
#128=EDGE_CURVE('',#159,#157,#34,.T.);
#129=EDGE_CURVE('',#160,#159,#35,.F.);
#130=EDGE_CURVE('',#158,#160,#36,.T.);
#131=EDGE_CURVE('',#161,#161,#37,.F.);
#132=EDGE_CURVE('',#162,#162,#38,.T.);
#133=EDGE_CURVE('',#163,#164,#39,.T.);
#134=EDGE_CURVE('',#165,#163,#40,.F.);
#135=EDGE_CURVE('',#166,#165,#41,.T.);
#136=EDGE_CURVE('',#164,#166,#42,.F.);
#137=EDGE_CURVE('',#147,#159,#173,.T.);
#138=EDGE_CURVE('',#157,#151,#174,.T.);
#139=EDGE_CURVE('',#158,#153,#175,.T.);
#140=EDGE_CURVE('',#150,#160,#176,.T.);
#141=EDGE_CURVE('',#163,#148,#177,.T.);
#142=EDGE_CURVE('',#152,#165,#178,.T.);
#143=EDGE_CURVE('',#154,#166,#179,.T.);
#144=EDGE_CURVE('',#164,#149,#180,.T.);
#145=EDGE_CURVE('',#167,#167,#43,.T.);
#146=EDGE_CURVE('',#168,#168,#44,.T.);
#147=VERTEX_POINT('',#420);
#148=VERTEX_POINT('',#421);
#149=VERTEX_POINT('',#423);
#150=VERTEX_POINT('',#425);
#151=VERTEX_POINT('',#429);
#152=VERTEX_POINT('',#430);
#153=VERTEX_POINT('',#435);
#154=VERTEX_POINT('',#436);
#155=VERTEX_POINT('',#444);
#156=VERTEX_POINT('',#446);
#157=VERTEX_POINT('',#448);
#158=VERTEX_POINT('',#449);
#159=VERTEX_POINT('',#451);
#160=VERTEX_POINT('',#453);
#161=VERTEX_POINT('',#457);
#162=VERTEX_POINT('',#459);
#163=VERTEX_POINT('',#461);
#164=VERTEX_POINT('',#462);
#165=VERTEX_POINT('',#464);
#166=VERTEX_POINT('',#466);
#167=VERTEX_POINT('',#486);
#168=VERTEX_POINT('',#489);
#169=LINE('',#419,#181);
#170=LINE('',#424,#182);
#171=LINE('',#428,#183);
#172=LINE('',#434,#184);
#173=LINE('',#469,#185);
#174=LINE('',#470,#186);
#175=LINE('',#472,#187);
#176=LINE('',#474,#188);
#177=LINE('',#477,#189);
#178=LINE('',#478,#190);
#179=LINE('',#480,#191);
#180=LINE('',#482,#192);
#181=VECTOR('',#327,1.);
#182=VECTOR('',#330,1.);
#183=VECTOR('',#335,1.);
#184=VECTOR('',#342,1.);
#185=VECTOR('',#383,1.);
#186=VECTOR('',#384,1.);
#187=VECTOR('',#387,1.);
#188=VECTOR('',#390,1.);
#189=VECTOR('',#395,1.);
#190=VECTOR('',#396,1.);
#191=VECTOR('',#399,1.);
#192=VECTOR('',#402,1.);
#193=EDGE_LOOP('',(#45,#46,#47,#48));
#194=EDGE_LOOP('',(#49,#50,#51,#52));
#195=EDGE_LOOP('',(#53,#54,#55,#56));
#196=EDGE_LOOP('',(#57,#58,#59,#60));
#197=EDGE_LOOP('',(#61));
#198=EDGE_LOOP('',(#62));
#199=EDGE_LOOP('',(#63,#64,#65,#66));
#200=EDGE_LOOP('',(#67));
#201=EDGE_LOOP('',(#68));
#202=EDGE_LOOP('',(#69,#70,#71,#72));
#203=EDGE_LOOP('',(#73,#74,#75,#76));
#204=EDGE_LOOP('',(#77,#78,#79,#80));
#205=EDGE_LOOP('',(#81,#82,#83,#84));
#206=EDGE_LOOP('',(#85,#86,#87,#88));
#207=EDGE_LOOP('',(#89,#90,#91,#92));
#208=EDGE_LOOP('',(#93,#94,#95,#96));
#209=EDGE_LOOP('',(#97,#98,#99,#100));
#210=EDGE_LOOP('',(#101,#102,#103,#104));
#211=EDGE_LOOP('',(#105));
#212=EDGE_LOOP('',(#106));
#213=EDGE_LOOP('',(#107));
#214=EDGE_LOOP('',(#108));
#215=EDGE_LOOP('',(#109));
#216=EDGE_LOOP('',(#110));
#217=EDGE_LOOP('',(#111));
#218=EDGE_LOOP('',(#112));
#219=FACE_BOUND('',#193,.T.);
#220=FACE_BOUND('',#194,.T.);
#221=FACE_BOUND('',#195,.T.);
#222=FACE_BOUND('',#196,.T.);
#223=FACE_BOUND('',#197,.T.);
#224=FACE_BOUND('',#198,.T.);
#225=FACE_BOUND('',#199,.T.);
#226=FACE_BOUND('',#200,.T.);
#227=FACE_BOUND('',#201,.T.);
#228=FACE_BOUND('',#202,.T.);
#229=FACE_BOUND('',#203,.T.);
#230=FACE_BOUND('',#204,.T.);
#231=FACE_BOUND('',#205,.T.);
#232=FACE_BOUND('',#206,.T.);
#233=FACE_BOUND('',#207,.T.);
#234=FACE_BOUND('',#208,.T.);
#235=FACE_BOUND('',#209,.T.);
#236=FACE_BOUND('',#210,.T.);
#237=FACE_BOUND('',#211,.T.);
#238=FACE_BOUND('',#212,.T.);
#239=FACE_BOUND('',#213,.T.);
#240=FACE_BOUND('',#214,.T.);
#241=FACE_BOUND('',#215,.T.);
#242=FACE_BOUND('',#216,.T.);
#243=FACE_BOUND('',#217,.T.);
#244=FACE_BOUND('',#218,.T.);
#245=CYLINDRICAL_SURFACE('',#283,0.01);
#246=CYLINDRICAL_SURFACE('',#286,0.0175);
#247=CYLINDRICAL_SURFACE('',#289,0.01);
#248=CYLINDRICAL_SURFACE('',#292,0.0175);
#249=CYLINDRICAL_SURFACE('',#317,0.014);
#250=CYLINDRICAL_SURFACE('',#321,0.0125);
#251=CYLINDRICAL_SURFACE('',#322,0.0075);
#252=ADVANCED_FACE('',(#219),#245,.F.);
#253=ADVANCED_FACE('',(#220),#246,.T.);
#254=ADVANCED_FACE('',(#221),#247,.F.);
#255=ADVANCED_FACE('',(#222),#248,.T.);
#256=ADVANCED_FACE('',(#223,#224,#225),#20,.T.);
#257=ADVANCED_FACE('',(#226,#227,#228),#21,.F.);
#258=ADVANCED_FACE('',(#229),#12,.T.);
#259=ADVANCED_FACE('',(#230),#13,.F.);
#260=ADVANCED_FACE('',(#231),#14,.F.);
#261=ADVANCED_FACE('',(#232),#15,.T.);
#262=ADVANCED_FACE('',(#233),#16,.T.);
#263=ADVANCED_FACE('',(#234),#17,.F.);
#264=ADVANCED_FACE('',(#235),#18,.F.);
#265=ADVANCED_FACE('',(#236),#19,.T.);
#266=ADVANCED_FACE('',(#237,#238),#249,.F.);
#267=ADVANCED_FACE('',(#239,#240),#22,.T.);
#268=ADVANCED_FACE('',(#241,#242),#250,.F.);
#269=ADVANCED_FACE('',(#243,#244),#251,.F.);
#270=CLOSED_SHELL('',(#252,#253,#254,#255,#256,#257,#258,#259,#260,#261,
#262,#263,#264,#265,#266,#267,#268,#269));
#271=STYLED_ITEM('',(#272),#279);
#272=PRESENTATION_STYLE_ASSIGNMENT((#273));
#273=SURFACE_STYLE_USAGE(.BOTH.,#274);
#274=SURFACE_SIDE_STYLE('',(#275));
#275=SURFACE_STYLE_FILL_AREA(#276);
#276=FILL_AREA_STYLE('',(#277));
#277=FILL_AREA_STYLE_COLOUR('',#278);
#278=COLOUR_RGB('',0.262745098039216,0.282352941176471,0.301960784313725);
#279=MANIFOLD_SOLID_BREP('3001.A-Biellette G',#270);
#280=SHAPE_DEFINITION_REPRESENTATION(#498,#281);
#281=SHAPE_REPRESENTATION('3001.A-Biellette G',(#282),#493);
#282=AXIS2_PLACEMENT_3D('',#417,#323,#324);
#283=AXIS2_PLACEMENT_3D('',#418,#325,#326);
#284=AXIS2_PLACEMENT_3D('',#422,#328,#329);
#285=AXIS2_PLACEMENT_3D('',#426,#331,#332);
#286=AXIS2_PLACEMENT_3D('',#427,#333,#334);
#287=AXIS2_PLACEMENT_3D('',#431,#336,#337);
#288=AXIS2_PLACEMENT_3D('',#432,#338,#339);
#289=AXIS2_PLACEMENT_3D('',#433,#340,#341);
#290=AXIS2_PLACEMENT_3D('',#437,#343,#344);
#291=AXIS2_PLACEMENT_3D('',#438,#345,#346);
#292=AXIS2_PLACEMENT_3D('',#439,#347,#348);
#293=AXIS2_PLACEMENT_3D('',#440,#349,#350);
#294=AXIS2_PLACEMENT_3D('',#441,#351,#352);
#295=AXIS2_PLACEMENT_3D('',#442,#353,#354);
#296=AXIS2_PLACEMENT_3D('',#443,#355,#356);
#297=AXIS2_PLACEMENT_3D('',#445,#357,#358);
#298=AXIS2_PLACEMENT_3D('',#447,#359,#360);
#299=AXIS2_PLACEMENT_3D('',#450,#361,#362);
#300=AXIS2_PLACEMENT_3D('',#452,#363,#364);
#301=AXIS2_PLACEMENT_3D('',#454,#365,#366);
#302=AXIS2_PLACEMENT_3D('',#455,#367,#368);
#303=AXIS2_PLACEMENT_3D('',#456,#369,#370);
#304=AXIS2_PLACEMENT_3D('',#458,#371,#372);
#305=AXIS2_PLACEMENT_3D('',#460,#373,#374);
#306=AXIS2_PLACEMENT_3D('',#463,#375,#376);
#307=AXIS2_PLACEMENT_3D('',#465,#377,#378);
#308=AXIS2_PLACEMENT_3D('',#467,#379,#380);
#309=AXIS2_PLACEMENT_3D('',#468,#381,#382);
#310=AXIS2_PLACEMENT_3D('',#471,#385,#386);
#311=AXIS2_PLACEMENT_3D('',#473,#388,#389);
#312=AXIS2_PLACEMENT_3D('',#475,#391,#392);
#313=AXIS2_PLACEMENT_3D('',#476,#393,#394);
#314=AXIS2_PLACEMENT_3D('',#479,#397,#398);
#315=AXIS2_PLACEMENT_3D('',#481,#400,#401);
#316=AXIS2_PLACEMENT_3D('',#483,#403,#404);
#317=AXIS2_PLACEMENT_3D('',#484,#405,#406);
#318=AXIS2_PLACEMENT_3D('',#485,#407,#408);
#319=AXIS2_PLACEMENT_3D('',#487,#409,#410);
#320=AXIS2_PLACEMENT_3D('',#488,#411,#412);
#321=AXIS2_PLACEMENT_3D('',#490,#413,#414);
#322=AXIS2_PLACEMENT_3D('',#491,#415,#416);
#323=DIRECTION('',(0.,0.,1.));
#324=DIRECTION('',(1.,0.,0.));
#325=DIRECTION('',(0.,1.,0.));
#326=DIRECTION('',(0.,0.,-1.));
#327=DIRECTION('',(0.,1.,0.));
#328=DIRECTION('',(0.,1.,0.));
#329=DIRECTION('',(0.,0.,1.));
#330=DIRECTION('',(0.,1.,0.));
#331=DIRECTION('',(0.,1.,0.));
#332=DIRECTION('',(0.,0.,1.));
#333=DIRECTION('',(0.,1.,0.));
#334=DIRECTION('',(0.,0.,-1.));
#335=DIRECTION('',(0.,1.,0.));
#336=DIRECTION('',(0.,1.,0.));
#337=DIRECTION('',(0.,0.,1.));
#338=DIRECTION('',(0.,1.,0.));
#339=DIRECTION('',(0.,0.,1.));
#340=DIRECTION('',(0.,1.,0.));
#341=DIRECTION('',(0.,0.,-1.));
#342=DIRECTION('',(0.,1.,0.));
#343=DIRECTION('',(0.,1.,0.));
#344=DIRECTION('',(0.,0.,1.));
#345=DIRECTION('',(0.,1.,0.));
#346=DIRECTION('',(0.,0.,1.));
#347=DIRECTION('',(0.,1.,0.));
#348=DIRECTION('',(0.,0.,-1.));
#349=DIRECTION('',(0.,1.,0.));
#350=DIRECTION('',(0.,0.,1.));
#351=DIRECTION('',(0.,1.,0.));
#352=DIRECTION('',(0.,0.,1.));
#353=DIRECTION('',(0.,-1.,0.));
#354=DIRECTION('',(-1.,0.,0.));
#355=DIRECTION('',(0.,-1.,0.));
#356=DIRECTION('',(0.,0.,-1.));
#357=DIRECTION('',(0.,1.,0.));
#358=DIRECTION('',(0.,0.,1.));
#359=DIRECTION('',(0.,1.,0.));
#360=DIRECTION('',(0.,0.,1.));
#361=DIRECTION('',(0.,1.,0.));
#362=DIRECTION('',(0.,0.,1.));
#363=DIRECTION('',(0.,1.,0.));
#364=DIRECTION('',(0.,0.,1.));
#365=DIRECTION('',(0.,1.,0.));
#366=DIRECTION('',(0.,0.,1.));
#367=DIRECTION('',(0.,-1.,0.));
#368=DIRECTION('',(-1.,0.,0.));
#369=DIRECTION('',(0.,-1.,0.));
#370=DIRECTION('',(0.,0.,-1.));
#371=DIRECTION('',(0.,-1.,0.));
#372=DIRECTION('',(0.,0.,-1.));
#373=DIRECTION('',(0.,1.,0.));
#374=DIRECTION('',(0.,0.,1.));
#375=DIRECTION('',(0.,1.,0.));
#376=DIRECTION('',(0.,0.,1.));
#377=DIRECTION('',(0.,1.,0.));
#378=DIRECTION('',(0.,0.,1.));
#379=DIRECTION('',(0.,1.,0.));
#380=DIRECTION('',(0.,0.,1.));
#381=DIRECTION('',(0.,1.,0.));
#382=DIRECTION('',(0.,0.,-1.));
#383=DIRECTION('',(-0.706265169834186,-0.707106781186547,0.0344892719419974));
#384=DIRECTION('',(-0.214348832626899,0.707106781186546,0.673835720299457));
#385=DIRECTION('',(0.,-1.,0.));
#386=DIRECTION('',(0.,0.,1.));
#387=DIRECTION('',(-0.706265169834184,0.707106781186548,0.0344892719420073));
#388=DIRECTION('',(0.,-1.,0.));
#389=DIRECTION('',(0.,0.,1.));
#390=DIRECTION('',(-0.214348832626898,-0.707106781186551,0.673835720299452));
#391=DIRECTION('',(0.,1.,0.));
#392=DIRECTION('',(0.,0.,-1.));
#393=DIRECTION('',(0.,-1.,0.));
#394=DIRECTION('',(0.,0.,1.));
#395=DIRECTION('',(0.706265169834186,-0.707106781186547,-0.0344892719419974));
#396=DIRECTION('',(0.214348832626899,0.707106781186546,-0.673835720299457));
#397=DIRECTION('',(0.,1.,0.));
#398=DIRECTION('',(0.,0.,-1.));
#399=DIRECTION('',(0.706265169834187,0.707106781186546,-0.0344892719420071));
#400=DIRECTION('',(0.,1.,0.));
#401=DIRECTION('',(0.,0.,-1.));
#402=DIRECTION('',(0.214348832626899,-0.707106781186546,-0.673835720299457));
#403=DIRECTION('',(0.,-1.,0.));
#404=DIRECTION('',(0.,0.,1.));
#405=DIRECTION('',(0.,1.,0.));
#406=DIRECTION('',(0.,0.,-1.));
#407=DIRECTION('',(0.,-1.,0.));
#408=DIRECTION('',(0.,0.,-1.));
#409=DIRECTION('',(0.,1.,0.));
#410=DIRECTION('',(1.,0.,0.));
#411=DIRECTION('',(0.,-1.,0.));
#412=DIRECTION('',(0.,0.,-1.));
#413=DIRECTION('',(0.,1.,0.));
#414=DIRECTION('',(0.,0.,-1.));
#415=DIRECTION('',(0.,1.,0.));
#416=DIRECTION('',(0.,0.,1.));
#417=CARTESIAN_POINT('',(0.,0.,0.));
#418=CARTESIAN_POINT('',(0.0422329548145335,0.021,0.161715950997034));
#419=CARTESIAN_POINT('',(0.0322448569964211,0.021,0.162203702958402));
#420=CARTESIAN_POINT('',(0.0322448569964211,0.023,0.162203702958402));
#421=CARTESIAN_POINT('',(0.0322448569964211,0.029,0.162203702958402));
#422=CARTESIAN_POINT('',(0.0422329548145335,0.029,0.161715950997034));
#423=CARTESIAN_POINT('',(0.0392016045527355,0.029,0.171245427141623));
#424=CARTESIAN_POINT('',(0.0392016045527355,0.021,0.171245427141623));
#425=CARTESIAN_POINT('',(0.0392016045527355,0.023,0.171245427141623));
#426=CARTESIAN_POINT('',(0.0422329548145335,0.023,0.161715950997034));
#427=CARTESIAN_POINT('',(0.0147656858147243,0.021,0.163057268890794));
#428=CARTESIAN_POINT('',(0.00946082285657784,0.021,0.179733852143826));
#429=CARTESIAN_POINT('',(0.00946082285657784,0.023,0.179733852143826));
#430=CARTESIAN_POINT('',(0.00946082285657784,0.029,0.179733852143826));
#431=CARTESIAN_POINT('',(0.0147656858147243,0.029,0.163057268890794));
#432=CARTESIAN_POINT('',(0.0147656858147243,0.023,0.163057268890794));
#433=CARTESIAN_POINT('',(0.00642947259477985,0.021,0.189263328288415));
#434=CARTESIAN_POINT('',(0.0164175704128922,0.021,0.188775576327048));
#435=CARTESIAN_POINT('',(0.0164175704128922,0.023,0.188775576327048));
#436=CARTESIAN_POINT('',(0.0164175704128922,0.029,0.188775576327048));
#437=CARTESIAN_POINT('',(0.00642947259477985,0.029,0.189263328288415));
#438=CARTESIAN_POINT('',(0.00642947259477985,0.023,0.189263328288415));
#439=CARTESIAN_POINT('',(0.033896741594589,0.021,0.187922010394655));
#440=CARTESIAN_POINT('',(0.033896741594589,0.029,0.187922010394655));
#441=CARTESIAN_POINT('',(0.033896741594589,0.023,0.187922010394655));
#442=CARTESIAN_POINT('',(0.0243312137046566,0.021,0.175489639642724));
#443=CARTESIAN_POINT('',(0.033896741594589,0.021,0.187922010394655));
#444=CARTESIAN_POINT('',(0.033896741594589,0.021,0.180422010394654));
#445=CARTESIAN_POINT('',(0.0147656858147244,0.021,0.163057268890794));
#446=CARTESIAN_POINT('',(0.0147656858147244,0.021,0.175557268890795));
#447=CARTESIAN_POINT('',(0.00642947259477985,0.021,0.189263328288415));
#448=CARTESIAN_POINT('',(0.0100670929089374,0.021,0.177827956914908));
#449=CARTESIAN_POINT('',(0.0184151899765147,0.021,0.188678025934774));
#450=CARTESIAN_POINT('',(0.0147656858147243,0.021,0.163057268890794));
#451=CARTESIAN_POINT('',(0.0302472374327986,0.021,0.162301253350675));
#452=CARTESIAN_POINT('',(0.0422329548145335,0.021,0.161715950997034));
#453=CARTESIAN_POINT('',(0.0385953345003759,0.021,0.173151322370541));
#454=CARTESIAN_POINT('',(0.033896741594589,0.021,0.187922010394655));
#455=CARTESIAN_POINT('',(0.0243312137046566,0.031,0.175489639642724));
#456=CARTESIAN_POINT('',(0.033896741594589,0.031,0.187922010394655));
#457=CARTESIAN_POINT('',(0.033896741594589,0.031,0.180422010394654));
#458=CARTESIAN_POINT('',(0.0147656858147244,0.031,0.163057268890794));
#459=CARTESIAN_POINT('',(0.0147656858147244,0.031,0.149057268890794));
#460=CARTESIAN_POINT('',(0.0422329548145335,0.031,0.161715950997034));
#461=CARTESIAN_POINT('',(0.0302472374327986,0.031,0.162301253350675));
#462=CARTESIAN_POINT('',(0.0385953345003759,0.031,0.173151322370541));
#463=CARTESIAN_POINT('',(0.0147656858147243,0.031,0.163057268890794));
#464=CARTESIAN_POINT('',(0.0100670929089374,0.031,0.177827956914908));
#465=CARTESIAN_POINT('',(0.00642947259477985,0.031,0.189263328288415));
#466=CARTESIAN_POINT('',(0.0184151899765147,0.031,0.188678025934774));
#467=CARTESIAN_POINT('',(0.033896741594589,0.031,0.187922010394655));
#468=CARTESIAN_POINT('',(0.0147656858147243,0.021,0.163057268890794));
#469=CARTESIAN_POINT('',(0.0322448569964211,0.023,0.162203702958402));
#470=CARTESIAN_POINT('',(0.0100670929089374,0.021,0.177827956914908));
#471=CARTESIAN_POINT('',(0.00642947259477985,0.023,0.189263328288415));
#472=CARTESIAN_POINT('',(0.0184151899765147,0.021,0.188678025934774));
#473=CARTESIAN_POINT('',(0.0422329548145335,0.023,0.161715950997034));
#474=CARTESIAN_POINT('',(0.0392016045527355,0.023,0.171245427141623));
#475=CARTESIAN_POINT('',(0.033896741594589,0.021,0.187922010394655));
#476=CARTESIAN_POINT('',(0.0147656858147243,0.029,0.163057268890794));
#477=CARTESIAN_POINT('',(0.0302472374327986,0.031,0.162301253350675));
#478=CARTESIAN_POINT('',(0.00946082285657784,0.029,0.179733852143826));
#479=CARTESIAN_POINT('',(0.00642947259477985,0.031,0.189263328288415));
#480=CARTESIAN_POINT('',(0.0164175704128922,0.029,0.188775576327048));
#481=CARTESIAN_POINT('',(0.0422329548145335,0.031,0.161715950997034));
#482=CARTESIAN_POINT('',(0.0385953345003759,0.031,0.173151322370541));
#483=CARTESIAN_POINT('',(0.033896741594589,0.029,0.187922010394655));
#484=CARTESIAN_POINT('',(0.0147656858147244,0.0225,0.163057268890794));
#485=CARTESIAN_POINT('',(0.0147656858147244,0.0225,0.163057268890794));
#486=CARTESIAN_POINT('',(0.0147656858147244,0.0225,0.149057268890794));
#487=CARTESIAN_POINT('',(0.0243312137046567,0.0225,0.175489639642724));
#488=CARTESIAN_POINT('',(0.0147656858147244,0.0225,0.163057268890794));
#489=CARTESIAN_POINT('',(0.0147656858147244,0.0225,0.150557268890794));
#490=CARTESIAN_POINT('',(0.0147656858147244,0.020998,0.163057268890794));
#491=CARTESIAN_POINT('',(0.033896741594589,-0.031,0.187922010394655));
#492=MECHANICAL_DESIGN_GEOMETRIC_PRESENTATION_REPRESENTATION('',(#271),
#493);
#493=(
GEOMETRIC_REPRESENTATION_CONTEXT(3)
GLOBAL_UNCERTAINTY_ASSIGNED_CONTEXT((#494))
GLOBAL_UNIT_ASSIGNED_CONTEXT((#497,#496,#495))
REPRESENTATION_CONTEXT('3001.A-Biellette G','TOP_LEVEL_ASSEMBLY_PART')
);
#494=UNCERTAINTY_MEASURE_WITH_UNIT(LENGTH_MEASURE(5.E-6),#497,
'DISTANCE_ACCURACY_VALUE','Maximum Tolerance applied to model');
#495=(
NAMED_UNIT(*)
SI_UNIT($,.STERADIAN.)
SOLID_ANGLE_UNIT()
);
#496=(
NAMED_UNIT(*)
PLANE_ANGLE_UNIT()
SI_UNIT($,.RADIAN.)
);
#497=(
LENGTH_UNIT()
NAMED_UNIT(*)
SI_UNIT($,.METRE.)
);
#498=PRODUCT_DEFINITION_SHAPE('','',#499);
#499=PRODUCT_DEFINITION('','',#501,#500);
#500=PRODUCT_DEFINITION_CONTEXT('',#507,'design');
#501=PRODUCT_DEFINITION_FORMATION_WITH_SPECIFIED_SOURCE('','',#503,
 .NOT_KNOWN.);
#502=PRODUCT_RELATED_PRODUCT_CATEGORY('','',(#503));
#503=PRODUCT('3001.A-Biellette G','3001.A-Biellette G',
'3001.A-Biellette G',(#505));
#504=PRODUCT_CATEGORY('','');
#505=PRODUCT_CONTEXT('',#507,'mechanical');
#506=APPLICATION_PROTOCOL_DEFINITION('international standard',
'ap242_managed_model_based_3d_engineering',2011,#507);
#507=APPLICATION_CONTEXT('managed model based 3d engineering');
ENDSEC;
END-ISO-10303-21;
