ISO-10303-21;
HEADER;
FILE_DESCRIPTION (( 'STEP AP214' ),
    '1' );
FILE_NAME ('CYC-028.step',
    '2024-04-03T09:40:58',
    ( '' ),
    ( '' ),
    'SwSTEP 2.0',
    'SolidWorks 2024',
    '' );
FILE_SCHEMA (( 'AUTOMOTIVE_DESIGN' ));
ENDSEC;

DATA;
#1 = EDGE_LOOP ( 'NONE', ( #209, #19 ) ) ;
#2 = DIRECTION ( 'NONE',  ( 0.000000000000000000, 0.7071067811865463515, 0.7071067811865487940 ) ) ;
#3 = LINE ( 'NONE', #251, #363 ) ;
#4 = ORIENTED_EDGE ( 'NONE', *, *, #13, .T. ) ;
#5 = ADVANCED_FACE ( 'NONE', ( #153 ), #123, .F. ) ;
#6 = CIRCLE ( 'NONE', #348, 6.200000000000001066 ) ;
#7 = DIRECTION ( 'NONE',  ( 0.000000000000000000, 0.000000000000000000, 1.000000000000000000 ) ) ;
#8 = AXIS2_PLACEMENT_3D ( 'NONE', #255, #135, #356 ) ;
#9 = CARTESIAN_POINT ( 'NONE',  ( 1.194030629168669075E-15, -10.00000000000000000, -9.499999999999996447 ) ) ;
#10 = DIRECTION ( 'NONE',  ( -0.000000000000000000, 1.000000000000000000, -0.000000000000000000 ) ) ;
#11 = EDGE_CURVE ( 'NONE', #283, #152, #314, .T. ) ;
#12 = CARTESIAN_POINT ( 'NONE',  ( 0.000000000000000000, -9.499999999999998224, 0.000000000000000000 ) ) ;
#13 = EDGE_CURVE ( 'NONE', #88, #22, #33, .T. ) ;
#14 = CARTESIAN_POINT ( 'NONE',  ( 0.000000000000000000, -10.00000000000000000, 9.499999999999996447 ) ) ;
#15 = CONICAL_SURFACE ( 'NONE', #128, 10.00000000000000000, 0.7853981633974500554 ) ;
#16 = EDGE_LOOP ( 'NONE', ( #63, #111, #342, #87 ) ) ;
#17 = EDGE_CURVE ( 'NONE', #152, #22, #3, .T. ) ;
#18 = CARTESIAN_POINT ( 'NONE',  ( 0.000000000000000000, 0.000000000000000000, 0.000000000000000000 ) ) ;
#19 = ORIENTED_EDGE ( 'NONE', *, *, #133, .T. ) ;
#20 = FACE_OUTER_BOUND ( 'NONE', #349, .T. ) ;
#21 = CARTESIAN_POINT ( 'NONE',  ( 0.000000000000000000, 0.000000000000000000, 0.000000000000000000 ) ) ;
#22 = VERTEX_POINT ( 'NONE', #223 ) ;
#23 = AXIS2_PLACEMENT_3D ( 'NONE', #99, #10, #7 ) ;
#24 = AXIS2_PLACEMENT_3D ( 'NONE', #221, #345, #312 ) ;
#25 = DIRECTION ( 'NONE',  ( 8.659560562354948882E-17, 0.7071067811865463515, -0.7071067811865487940 ) ) ;
#26 = CARTESIAN_POINT ( 'NONE',  ( 0.000000000000000000, 0.000000000000000000, 6.200000000000001066 ) ) ;
#27 = EDGE_CURVE ( 'NONE', #366, #88, #347, .T. ) ;
#28 = DIRECTION ( 'NONE',  ( 0.000000000000000000, -1.000000000000000000, 0.000000000000000000 ) ) ;
#29 = ORIENTED_EDGE ( 'NONE', *, *, #17, .F. ) ;
#30 = DIRECTION ( 'NONE',  ( -0.000000000000000000, 1.000000000000000000, -0.000000000000000000 ) ) ;
#31 = EDGE_LOOP ( 'NONE', ( #318, #310, #157, #142 ) ) ;
#32 = PRODUCT_DEFINITION_FORMATION_WITH_SPECIFIED_SOURCE ( 'ANY', '', #113, .NOT_KNOWN. ) ;
#33 = LINE ( 'NONE', #156, #42 ) ;
#34 = CARTESIAN_POINT ( 'NONE',  ( 0.000000000000000000, -10.00000000000000000, -6.699999999999999289 ) ) ;
#35 = ORIENTED_EDGE ( 'NONE', *, *, #308, .T. ) ;
#36 = CARTESIAN_POINT ( 'NONE',  ( 0.000000000000000000, -9.499999999999998224, 6.200000000000001066 ) ) ;
#37 =( GEOMETRIC_REPRESENTATION_CONTEXT ( 3 ) GLOBAL_UNCERTAINTY_ASSIGNED_CONTEXT ( ( #373 ) ) GLOBAL_UNIT_ASSIGNED_CONTEXT ( ( #196, #69, #105 ) ) REPRESENTATION_CONTEXT ( 'NONE', 'WORKASPACE' ) );
#38 = CONICAL_SURFACE ( 'NONE', #289, 6.200000000000001066, 0.7853981633974500554 ) ;
#39 = CARTESIAN_POINT ( 'NONE',  ( 1.163414459189984894E-15, 0.000000000000000000, 9.499999999999994671 ) ) ;
#40 = DIRECTION ( 'NONE',  ( -0.000000000000000000, 1.000000000000000000, 0.000000000000000000 ) ) ;
#41 = LINE ( 'NONE', #160, #207 ) ;
#42 = VECTOR ( 'NONE', #285, 1000.000000000000114 ) ;
#43 = CARTESIAN_POINT ( 'NONE',  ( 0.000000000000000000, -10.00000000000000000, 0.000000000000000000 ) ) ;
#44 = DIRECTION ( 'NONE',  ( 0.000000000000000000, 0.000000000000000000, 1.000000000000000000 ) ) ;
#45 = EDGE_CURVE ( 'NONE', #125, #253, #307, .T. ) ;
#46 = FACE_OUTER_BOUND ( 'NONE', #236, .T. ) ;
#47 = EDGE_LOOP ( 'NONE', ( #168, #80, #89, #303 ) ) ;
#48 = DIRECTION ( 'NONE',  ( -0.000000000000000000, 1.000000000000000000, -0.000000000000000000 ) ) ;
#49 = AXIS2_PLACEMENT_3D ( 'NONE', #178, #137, #359 ) ;
#50 = ORIENTED_EDGE ( 'NONE', *, *, #27, .F. ) ;
#51 = CARTESIAN_POINT ( 'NONE',  ( 0.000000000000000000, -0.4999999999999943934, 0.000000000000000000 ) ) ;
#52 = ORIENTED_EDGE ( 'NONE', *, *, #261, .F. ) ;
#53 = DIRECTION ( 'NONE',  ( -0.000000000000000000, 1.000000000000000000, -0.000000000000000000 ) ) ;
#54 = VERTEX_POINT ( 'NONE', #276 ) ;
#55 = CARTESIAN_POINT ( 'NONE',  ( 8.205133554287265576E-16, -10.00000000000000000, 6.699999999999999289 ) ) ;
#56 = DIRECTION ( 'NONE',  ( 0.000000000000000000, 0.000000000000000000, -1.000000000000000000 ) ) ;
#57 = CIRCLE ( 'NONE', #134, 10.00000000000000000 ) ;
#58 = AXIS2_PLACEMENT_3D ( 'NONE', #248, #189, #243 ) ;
#59 = PRODUCT_CONTEXT ( 'NONE', #217, 'mechanical' ) ;
#60 = ORIENTED_EDGE ( 'NONE', *, *, #282, .T. ) ;
#61 = ADVANCED_FACE ( 'NONE', ( #129, #72 ), #322, .F. ) ;
#62 =( LENGTH_UNIT ( ) NAMED_UNIT ( * ) SI_UNIT ( .MILLI., .METRE. ) );
#63 = ORIENTED_EDGE ( 'NONE', *, *, #76, .F. ) ;
#64 = DIRECTION ( 'NONE',  ( 0.000000000000000000, 0.000000000000000000, 1.000000000000000000 ) ) ;
#65 = AXIS2_PLACEMENT_3D ( 'NONE', #237, #302, #239 ) ;
#66 = UNCERTAINTY_MEASURE_WITH_UNIT (LENGTH_MEASURE( 1.000000000000000082E-05 ), #62, 'distance_accuracy_value', 'NONE');
#67 = VERTEX_POINT ( 'NONE', #288 ) ;
#68 = CARTESIAN_POINT ( 'NONE',  ( 6.200000000000001066, -10.00000000000000000, 0.000000000000000000 ) ) ;
#69 =( NAMED_UNIT ( * ) PLANE_ANGLE_UNIT ( ) SI_UNIT ( $, .RADIAN. ) );
#70 = PRODUCT_DEFINITION ( 'UNKNOWN', '', #32, #103 ) ;
#71 = AXIS2_PLACEMENT_3D ( 'NONE', #230, #101, #381 ) ;
#72 = FACE_BOUND ( 'NONE', #95, .T. ) ;
#73 = SURFACE_STYLE_USAGE ( .BOTH. , #350 ) ;
#74 = CIRCLE ( 'NONE', #71, 9.499999999999994671 ) ;
#75 = FACE_OUTER_BOUND ( 'NONE', #244, .T. ) ;
#76 = EDGE_CURVE ( 'NONE', #78, #215, #222, .T. ) ;
#77 = CARTESIAN_POINT ( 'NONE',  ( 0.000000000000000000, -0.5000000000000056621, 0.000000000000000000 ) ) ;
#78 = VERTEX_POINT ( 'NONE', #9 ) ;
#79 = DIRECTION ( 'NONE',  ( 0.000000000000000000, 0.000000000000000000, 1.000000000000000000 ) ) ;
#80 = ORIENTED_EDGE ( 'NONE', *, *, #120, .T. ) ;
#81 = AXIS2_PLACEMENT_3D ( 'NONE', #357, #389, #335 ) ;
#82 = LINE ( 'NONE', #139, #320 ) ;
#83 = STYLED_ITEM ( 'NONE', ( #351 ), #106 ) ;
#84 = VECTOR ( 'NONE', #25, 1000.000000000000000 ) ;
#85 = ORIENTED_EDGE ( 'NONE', *, *, #45, .F. ) ;
#86 = CARTESIAN_POINT ( 'NONE',  ( 0.000000000000000000, -9.499999999999998224, 10.00000000000000000 ) ) ;
#87 = ORIENTED_EDGE ( 'NONE', *, *, #308, .F. ) ;
#88 = VERTEX_POINT ( 'NONE', #319 ) ;
#89 = ORIENTED_EDGE ( 'NONE', *, *, #93, .F. ) ;
#90 = CIRCLE ( 'NONE', #8, 6.699999999999999289 ) ;
#91 = ADVANCED_FACE ( 'NONE', ( #198, #131 ), #166, .F. ) ;
#92 = VERTEX_POINT ( 'NONE', #379 ) ;
#93 = EDGE_CURVE ( 'NONE', #92, #386, #90, .T. ) ;
#94 = LINE ( 'NONE', #181, #84 ) ;
#95 = EDGE_LOOP ( 'NONE', ( #241, #344 ) ) ;
#96 = DIRECTION ( 'NONE',  ( -0.000000000000000000, 1.000000000000000000, -0.000000000000000000 ) ) ;
#97 = DIRECTION ( 'NONE',  ( 0.000000000000000000, -1.000000000000000000, 0.000000000000000000 ) ) ;
#98 = EDGE_CURVE ( 'NONE', #88, #366, #74, .T. ) ;
#99 = CARTESIAN_POINT ( 'NONE',  ( 0.000000000000000000, 0.000000000000000000, 0.000000000000000000 ) ) ;
#100 = EDGE_CURVE ( 'NONE', #366, #266, #260, .T. ) ;
#101 = DIRECTION ( 'NONE',  ( -0.000000000000000000, 1.000000000000000000, -0.000000000000000000 ) ) ;
#102 = CONICAL_SURFACE ( 'NONE', #65, 9.499999999999994671, 0.7853981633974482790 ) ;
#103 = PRODUCT_DEFINITION_CONTEXT ( 'detailed design', #280, 'design' ) ;
#104 = DIRECTION ( 'NONE',  ( -0.000000000000000000, 1.000000000000000000, -0.000000000000000000 ) ) ;
#105 =( NAMED_UNIT ( * ) SI_UNIT ( $, .STERADIAN. ) SOLID_ANGLE_UNIT ( ) );
#106 = MANIFOLD_SOLID_BREP ( 'Chanfrein1', #229 ) ;
#107 = CARTESIAN_POINT ( 'NONE',  ( 0.000000000000000000, -10.00000000000000000, 0.000000000000000000 ) ) ;
#108 = CIRCLE ( 'NONE', #197, 6.699999999999996625 ) ;
#109 = CARTESIAN_POINT ( 'NONE',  ( 0.000000000000000000, -0.4999999999999943934, 6.200000000000001066 ) ) ;
#110 = CARTESIAN_POINT ( 'NONE',  ( 0.000000000000000000, -9.499999999999998224, 0.000000000000000000 ) ) ;
#111 = ORIENTED_EDGE ( 'NONE', *, *, #365, .T. ) ;
#112 = CARTESIAN_POINT ( 'NONE',  ( 0.000000000000000000, -9.499999999999998224, 0.000000000000000000 ) ) ;
#113 = PRODUCT ( 'CYC-028', 'CYC-028', '', ( #59 ) ) ;
#114 = AXIS2_PLACEMENT_3D ( 'NONE', #127, #249, #64 ) ;
#115 = DIRECTION ( 'NONE',  ( 0.000000000000000000, 0.000000000000000000, 1.000000000000000000 ) ) ;
#116 = AXIS2_PLACEMENT_3D ( 'NONE', #12, #328, #364 ) ;
#117 = ORIENTED_EDGE ( 'NONE', *, *, #204, .T. ) ;
#118 = ORIENTED_EDGE ( 'NONE', *, *, #186, .F. ) ;
#119 = CARTESIAN_POINT ( 'NONE',  ( 0.000000000000000000, 0.000000000000000000, 0.000000000000000000 ) ) ;
#120 = EDGE_CURVE ( 'NONE', #125, #386, #228, .T. ) ;
#121 = ORIENTED_EDGE ( 'NONE', *, *, #17, .T. ) ;
#122 = ORIENTED_EDGE ( 'NONE', *, *, #204, .F. ) ;
#123 = CONICAL_SURFACE ( 'NONE', #114, 6.200000000000001066, 0.7853981633974500554 ) ;
#124 = DIRECTION ( 'NONE',  ( 0.000000000000000000, 0.000000000000000000, -1.000000000000000000 ) ) ;
#125 = VERTEX_POINT ( 'NONE', #36 ) ;
#126 = ORIENTED_EDGE ( 'NONE', *, *, #338, .F. ) ;
#127 = CARTESIAN_POINT ( 'NONE',  ( 0.000000000000000000, -0.4999999999999943934, 0.000000000000000000 ) ) ;
#128 = AXIS2_PLACEMENT_3D ( 'NONE', #143, #208, #210 ) ;
#129 = FACE_OUTER_BOUND ( 'NONE', #193, .T. ) ;
#130 = ADVANCED_FACE ( 'NONE', ( #323 ), #200, .F. ) ;
#131 = FACE_OUTER_BOUND ( 'NONE', #329, .T. ) ;
#132 = CARTESIAN_POINT ( 'NONE',  ( 0.000000000000000000, -9.499999999999998224, 0.000000000000000000 ) ) ;
#133 = EDGE_CURVE ( 'NONE', #386, #92, #232, .T. ) ;
#134 = AXIS2_PLACEMENT_3D ( 'NONE', #77, #299, #360 ) ;
#135 = DIRECTION ( 'NONE',  ( -0.000000000000000000, 1.000000000000000000, -0.000000000000000000 ) ) ;
#136 = FACE_OUTER_BOUND ( 'NONE', #16, .T. ) ;
#137 = DIRECTION ( 'NONE',  ( 0.000000000000000000, -1.000000000000000000, 0.000000000000000000 ) ) ;
#138 = COLOUR_RGB ( '',0.6470588235294117974, 0.6196078431372549211, 0.5882352941176470784 ) ;
#139 = CARTESIAN_POINT ( 'NONE',  ( 0.000000000000000000, 0.000000000000000000, 10.00000000000000000 ) ) ;
#140 = EDGE_CURVE ( 'NONE', #242, #54, #41, .T. ) ;
#141 = DIRECTION ( 'NONE',  ( -0.000000000000000000, -1.000000000000000000, -0.000000000000000000 ) ) ;
#142 = ORIENTED_EDGE ( 'NONE', *, *, #278, .T. ) ;
#143 = CARTESIAN_POINT ( 'NONE',  ( 0.000000000000000000, -9.499999999999998224, 0.000000000000000000 ) ) ;
#144 = ORIENTED_EDGE ( 'NONE', *, *, #384, .F. ) ;
#145 = AXIS2_PLACEMENT_3D ( 'NONE', #132, #104, #297 ) ;
#146 = LINE ( 'NONE', #173, #258 ) ;
#147 = ORIENTED_EDGE ( 'NONE', *, *, #27, .T. ) ;
#148 = ADVANCED_FACE ( 'NONE', ( #136 ), #358, .T. ) ;
#149 =( NAMED_UNIT ( * ) SI_UNIT ( $, .STERADIAN. ) SOLID_ANGLE_UNIT ( ) );
#150 = DIRECTION ( 'NONE',  ( -0.000000000000000000, 1.000000000000000000, -0.000000000000000000 ) ) ;
#151 = CARTESIAN_POINT ( 'NONE',  ( 1.194030629168669075E-15, 0.000000000000000000, 9.499999999999994671 ) ) ;
#152 = VERTEX_POINT ( 'NONE', #362 ) ;
#153 = FACE_OUTER_BOUND ( 'NONE', #392, .T. ) ;
#154 = AXIS2_PLACEMENT_3D ( 'NONE', #107, #201, #115 ) ;
#155 = CYLINDRICAL_SURFACE ( 'NONE', #246, 6.200000000000001066 ) ;
#156 = CARTESIAN_POINT ( 'NONE',  ( 0.000000000000000000, 0.000000000000000000, -9.499999999999994671 ) ) ;
#157 = ORIENTED_EDGE ( 'NONE', *, *, #45, .T. ) ;
#158 = CARTESIAN_POINT ( 'NONE',  ( 0.000000000000000000, -10.00000000000000000, 0.000000000000000000 ) ) ;
#159 = EDGE_CURVE ( 'NONE', #283, #266, #82, .T. ) ;
#160 = CARTESIAN_POINT ( 'NONE',  ( 7.592810154713590821E-16, -0.4999999999999943934, -6.200000000000001066 ) ) ;
#161 = ADVANCED_FACE ( 'NONE', ( #265 ), #15, .T. ) ;
#162 = SURFACE_STYLE_FILL_AREA ( #293 ) ;
#163 = CARTESIAN_POINT ( 'NONE',  ( 8.205133554287265576E-16, -10.00000000000000000, 6.699999999999999289 ) ) ;
#164 = MECHANICAL_DESIGN_GEOMETRIC_PRESENTATION_REPRESENTATION (  '', ( #83 ), #37 ) ;
#165 = VECTOR ( 'NONE', #341, 1000.000000000000000 ) ;
#166 = PLANE ( 'NONE',  #271 ) ;
#167 = CARTESIAN_POINT ( 'NONE',  ( 0.000000000000000000, -0.4999999999999943934, 0.000000000000000000 ) ) ;
#168 = ORIENTED_EDGE ( 'NONE', *, *, #282, .F. ) ;
#169 = ADVANCED_FACE ( 'NONE', ( #269 ), #325, .F. ) ;
#170 = DIRECTION ( 'NONE',  ( 0.000000000000000000, -1.000000000000000000, 0.000000000000000000 ) ) ;
#171 = ORIENTED_EDGE ( 'NONE', *, *, #365, .F. ) ;
#172 = AXIS2_PLACEMENT_3D ( 'NONE', #369, #399, #315 ) ;
#173 = CARTESIAN_POINT ( 'NONE',  ( 7.592810154713590821E-16, 0.000000000000000000, -6.200000000000001066 ) ) ;
#174 = ORIENTED_EDGE ( 'NONE', *, *, #13, .F. ) ;
#175 = PRODUCT_DEFINITION_SHAPE ( 'NONE', 'NONE',  #70 ) ;
#176 = CARTESIAN_POINT ( 'NONE',  ( 0.000000000000000000, 0.000000000000000000, 0.000000000000000000 ) ) ;
#177 = EDGE_LOOP ( 'NONE', ( #327, #334, #179, #185 ) ) ;
#178 = CARTESIAN_POINT ( 'NONE',  ( 0.000000000000000000, -0.5000000000000056621, 0.000000000000000000 ) ) ;
#179 = ORIENTED_EDGE ( 'NONE', *, *, #378, .T. ) ;
#180 = CIRCLE ( 'NONE', #281, 6.200000000000001066 ) ;
#181 = CARTESIAN_POINT ( 'NONE',  ( 1.224646799147353256E-15, -9.499999999999998224, -10.00000000000000000 ) ) ;
#182 = CIRCLE ( 'NONE', #24, 6.200000000000001066 ) ;
#183 = DIRECTION ( 'NONE',  ( -0.000000000000000000, 1.000000000000000000, -0.000000000000000000 ) ) ;
#184 = DIRECTION ( 'NONE',  ( 0.000000000000000000, 0.7071067811865463515, 0.7071067811865487940 ) ) ;
#185 = ORIENTED_EDGE ( 'NONE', *, *, #133, .F. ) ;
#186 = EDGE_CURVE ( 'NONE', #152, #283, #304, .T. ) ;
#187 = CARTESIAN_POINT ( 'NONE',  ( 0.000000000000000000, 0.000000000000000000, 0.000000000000000000 ) ) ;
#188 = ORIENTED_EDGE ( 'NONE', *, *, #278, .F. ) ;
#189 = DIRECTION ( 'NONE',  ( -0.000000000000000000, -1.000000000000000000, -0.000000000000000000 ) ) ;
#190 = AXIS2_PLACEMENT_3D ( 'NONE', #43, #97, #227 ) ;
#191 = CARTESIAN_POINT ( 'NONE',  ( 0.000000000000000000, -9.499999999999998224, 0.000000000000000000 ) ) ;
#192 = DIRECTION ( 'NONE',  ( 1.000000000000000000, 0.000000000000000000, 0.000000000000000000 ) ) ;
#193 = EDGE_LOOP ( 'NONE', ( #268, #147 ) ) ;
#194 = FILL_AREA_STYLE_COLOUR ( '', #138 ) ;
#195 = ADVANCED_FACE ( 'NONE', ( #20 ), #333, .T. ) ;
#196 =( LENGTH_UNIT ( ) NAMED_UNIT ( * ) SI_UNIT ( .MILLI., .METRE. ) );
#197 = AXIS2_PLACEMENT_3D ( 'NONE', #176, #170, #203 ) ;
#198 = FACE_BOUND ( 'NONE', #1, .T. ) ;
#199 = DIRECTION ( 'NONE',  ( 8.659560562354932858E-17, -0.7071067811865474617, 0.7071067811865474617 ) ) ;
#200 = CYLINDRICAL_SURFACE ( 'NONE', #23, 6.200000000000001066 ) ;
#201 = DIRECTION ( 'NONE',  ( 0.000000000000000000, -1.000000000000000000, 0.000000000000000000 ) ) ;
#202 = PRODUCT_RELATED_PRODUCT_CATEGORY ( 'part', '', ( #113 ) ) ;
#203 = DIRECTION ( 'NONE',  ( 0.000000000000000000, 0.000000000000000000, -1.000000000000000000 ) ) ;
#204 = EDGE_CURVE ( 'NONE', #22, #266, #353, .T. ) ;
#205 = CYLINDRICAL_SURFACE ( 'NONE', #292, 10.00000000000000000 ) ;
#206 = EDGE_CURVE ( 'NONE', #67, #125, #180, .T. ) ;
#207 = VECTOR ( 'NONE', #290, 1000.000000000000000 ) ;
#208 = DIRECTION ( 'NONE',  ( -0.000000000000000000, 1.000000000000000000, -0.000000000000000000 ) ) ;
#209 = ORIENTED_EDGE ( 'NONE', *, *, #93, .T. ) ;
#210 = DIRECTION ( 'NONE',  ( 0.000000000000000000, 0.000000000000000000, 1.000000000000000000 ) ) ;
#211 = ORIENTED_EDGE ( 'NONE', *, *, #225, .T. ) ;
#212 = ORIENTED_EDGE ( 'NONE', *, *, #140, .T. ) ;
#213 = PRESENTATION_LAYER_ASSIGNMENT (  '', '', ( #83 ) ) ;
#214 = CIRCLE ( 'NONE', #116, 6.200000000000001066 ) ;
#215 = VERTEX_POINT ( 'NONE', #14 ) ;
#216 = ADVANCED_FACE ( 'NONE', ( #75 ), #102, .T. ) ;
#217 = APPLICATION_CONTEXT ( 'automotive_design' ) ;
#218 = ORIENTED_EDGE ( 'NONE', *, *, #98, .F. ) ;
#219 = FACE_OUTER_BOUND ( 'NONE', #390, .T. ) ;
#220 = ORIENTED_EDGE ( 'NONE', *, *, #238, .T. ) ;
#221 = CARTESIAN_POINT ( 'NONE',  ( 0.000000000000000000, -0.4999999999999943934, 0.000000000000000000 ) ) ;
#222 = CIRCLE ( 'NONE', #190, 9.499999999999996447 ) ;
#223 = CARTESIAN_POINT ( 'NONE',  ( 1.224646799147353256E-15, -0.5000000000000056621, -10.00000000000000000 ) ) ;
#224 = CONICAL_SURFACE ( 'NONE', #172, 9.499999999999994671, 0.7853981633974482790 ) ;
#225 = EDGE_CURVE ( 'NONE', #266, #22, #57, .T. ) ;
#226 = DIRECTION ( 'NONE',  ( 0.000000000000000000, 0.000000000000000000, 1.000000000000000000 ) ) ;
#227 = DIRECTION ( 'NONE',  ( 0.000000000000000000, 0.000000000000000000, 1.000000000000000000 ) ) ;
#228 = LINE ( 'NONE', #163, #263 ) ;
#229 = CLOSED_SHELL ( 'NONE', ( #5, #311, #148, #355, #274, #352, #130, #91, #195, #61, #169, #161, #216, #257 ) ) ;
#230 = CARTESIAN_POINT ( 'NONE',  ( 0.000000000000000000, 0.000000000000000000, 0.000000000000000000 ) ) ;
#231 = FACE_OUTER_BOUND ( 'NONE', #370, .T. ) ;
#232 = CIRCLE ( 'NONE', #252, 6.699999999999999289 ) ;
#233 = VECTOR ( 'NONE', #184, 1000.000000000000000 ) ;
#234 = DIRECTION ( 'NONE',  ( 0.000000000000000000, 1.000000000000000000, 0.000000000000000000 ) ) ;
#235 = EDGE_CURVE ( 'NONE', #215, #78, #331, .T. ) ;
#236 = EDGE_LOOP ( 'NONE', ( #313, #188, #361, #126 ) ) ;
#237 = CARTESIAN_POINT ( 'NONE',  ( 0.000000000000000000, 0.000000000000000000, 0.000000000000000000 ) ) ;
#238 = EDGE_CURVE ( 'NONE', #67, #242, #146, .T. ) ;
#239 = DIRECTION ( 'NONE',  ( 0.000000000000000000, 0.000000000000000000, -1.000000000000000000 ) ) ;
#240 = DIRECTION ( 'NONE',  ( -0.000000000000000000, 1.000000000000000000, -0.000000000000000000 ) ) ;
#241 = ORIENTED_EDGE ( 'NONE', *, *, #261, .T. ) ;
#242 = VERTEX_POINT ( 'NONE', #383 ) ;
#243 = DIRECTION ( 'NONE',  ( 0.000000000000000000, 0.000000000000000000, -1.000000000000000000 ) ) ;
#244 = EDGE_LOOP ( 'NONE', ( #300, #218, #4, #296 ) ) ;
#245 = FACE_OUTER_BOUND ( 'NONE', #47, .T. ) ;
#246 = AXIS2_PLACEMENT_3D ( 'NONE', #119, #30, #306 ) ;
#247 = ORIENTED_EDGE ( 'NONE', *, *, #76, .T. ) ;
#248 = CARTESIAN_POINT ( 'NONE',  ( 0.000000000000000000, -10.00000000000000000, 0.000000000000000000 ) ) ;
#249 = DIRECTION ( 'NONE',  ( 0.000000000000000000, 1.000000000000000000, 0.000000000000000000 ) ) ;
#250 = APPLICATION_PROTOCOL_DEFINITION ( 'draft international standard', 'automotive_design', 1998, #217 ) ;
#251 = CARTESIAN_POINT ( 'NONE',  ( 1.224646799147353256E-15, 0.000000000000000000, -10.00000000000000000 ) ) ;
#252 = AXIS2_PLACEMENT_3D ( 'NONE', #158, #321, #324 ) ;
#253 = VERTEX_POINT ( 'NONE', #109 ) ;
#254 = VECTOR ( 'NONE', #2, 1000.000000000000000 ) ;
#255 = CARTESIAN_POINT ( 'NONE',  ( 0.000000000000000000, -10.00000000000000000, 0.000000000000000000 ) ) ;
#256 = CARTESIAN_POINT ( 'NONE',  ( 6.200000000000000178, 0.000000000000000000, 0.000000000000000000 ) ) ;
#257 = ADVANCED_FACE ( 'NONE', ( #46 ), #38, .F. ) ;
#258 = VECTOR ( 'NONE', #240, 1000.000000000000000 ) ;
#259 = CIRCLE ( 'NONE', #305, 6.699999999999996625 ) ;
#260 = LINE ( 'NONE', #39, #385 ) ;
#261 = EDGE_CURVE ( 'NONE', #273, #54, #108, .T. ) ;
#262 = DIRECTION ( 'NONE',  ( 0.000000000000000000, 0.000000000000000000, 1.000000000000000000 ) ) ;
#263 = VECTOR ( 'NONE', #354, 1000.000000000000000 ) ;
#264 = AXIS2_PLACEMENT_3D ( 'NONE', #187, #284, #192 ) ;
#265 = FACE_OUTER_BOUND ( 'NONE', #279, .T. ) ;
#266 = VERTEX_POINT ( 'NONE', #382 ) ;
#267 = DIRECTION ( 'NONE',  ( 0.000000000000000000, 0.000000000000000000, 1.000000000000000000 ) ) ;
#268 = ORIENTED_EDGE ( 'NONE', *, *, #98, .T. ) ;
#269 = FACE_OUTER_BOUND ( 'NONE', #177, .T. ) ;
#270 = EDGE_LOOP ( 'NONE', ( #50, #395, #122, #174 ) ) ;
#271 = AXIS2_PLACEMENT_3D ( 'NONE', #68, #40, #226 ) ;
#272 = SHAPE_DEFINITION_REPRESENTATION ( #175, #332 ) ;
#273 = VERTEX_POINT ( 'NONE', #295 ) ;
#274 = ADVANCED_FACE ( 'NONE', ( #231 ), #205, .T. ) ;
#275 = LINE ( 'NONE', #394, #254 ) ;
#276 = CARTESIAN_POINT ( 'NONE',  ( 8.205133554287262618E-16, 0.000000000000000000, -6.699999999999996625 ) ) ;
#277 = CARTESIAN_POINT ( 'NONE',  ( 0.000000000000000000, 0.000000000000000000, 0.000000000000000000 ) ) ;
#278 = EDGE_CURVE ( 'NONE', #253, #242, #6, .T. ) ;
#279 = EDGE_LOOP ( 'NONE', ( #171, #375, #35, #118 ) ) ;
#280 = APPLICATION_CONTEXT ( 'automotive_design' ) ;
#281 = AXIS2_PLACEMENT_3D ( 'NONE', #110, #141, #267 ) ;
#282 = EDGE_CURVE ( 'NONE', #125, #67, #214, .T. ) ;
#283 = VERTEX_POINT ( 'NONE', #86 ) ;
#284 = DIRECTION ( 'NONE',  ( 0.000000000000000000, 0.000000000000000000, 1.000000000000000000 ) ) ;
#285 = DIRECTION ( 'NONE',  ( 0.000000000000000000, -0.7071067811865474617, -0.7071067811865474617 ) ) ;
#286 = ORIENTED_EDGE ( 'NONE', *, *, #384, .T. ) ;
#287 = AXIS2_PLACEMENT_3D ( 'NONE', #377, #337, #56 ) ;
#288 = CARTESIAN_POINT ( 'NONE',  ( 7.592810154713590821E-16, -9.499999999999998224, -6.200000000000001066 ) ) ;
#289 = AXIS2_PLACEMENT_3D ( 'NONE', #51, #326, #79 ) ;
#290 = DIRECTION ( 'NONE',  ( 8.659560562354950115E-17, 0.7071067811865463515, -0.7071067811865487940 ) ) ;
#291 = DIRECTION ( 'NONE',  ( 0.000000000000000000, -0.000000000000000000, -1.000000000000000000 ) ) ;
#292 = AXIS2_PLACEMENT_3D ( 'NONE', #18, #330, #44 ) ;
#293 = FILL_AREA_STYLE ('',( #194 ) ) ;
#294 = EDGE_CURVE ( 'NONE', #253, #273, #275, .T. ) ;
#295 = CARTESIAN_POINT ( 'NONE',  ( 0.000000000000000000, 0.000000000000000000, 6.699999999999996625 ) ) ;
#296 = ORIENTED_EDGE ( 'NONE', *, *, #225, .F. ) ;
#297 = DIRECTION ( 'NONE',  ( 0.000000000000000000, 0.000000000000000000, 1.000000000000000000 ) ) ;
#298 = AXIS2_PLACEMENT_3D ( 'NONE', #112, #387, #391 ) ;
#299 = DIRECTION ( 'NONE',  ( 0.000000000000000000, -1.000000000000000000, 0.000000000000000000 ) ) ;
#300 = ORIENTED_EDGE ( 'NONE', *, *, #100, .F. ) ;
#301 = DIRECTION ( 'NONE',  ( 0.000000000000000000, 0.000000000000000000, -1.000000000000000000 ) ) ;
#302 = DIRECTION ( 'NONE',  ( 0.000000000000000000, -1.000000000000000000, 0.000000000000000000 ) ) ;
#303 = ORIENTED_EDGE ( 'NONE', *, *, #378, .F. ) ;
#304 = CIRCLE ( 'NONE', #298, 10.00000000000000000 ) ;
#305 = AXIS2_PLACEMENT_3D ( 'NONE', #277, #28, #124 ) ;
#306 = DIRECTION ( 'NONE',  ( 0.000000000000000000, 0.000000000000000000, 1.000000000000000000 ) ) ;
#307 = LINE ( 'NONE', #26, #398 ) ;
#308 = EDGE_CURVE ( 'NONE', #215, #283, #343, .T. ) ;
#309 = FACE_OUTER_BOUND ( 'NONE', #270, .T. ) ;
#310 = ORIENTED_EDGE ( 'NONE', *, *, #206, .T. ) ;
#311 = ADVANCED_FACE ( 'NONE', ( #309 ), #224, .T. ) ;
#312 = DIRECTION ( 'NONE',  ( 0.000000000000000000, 0.000000000000000000, -1.000000000000000000 ) ) ;
#313 = ORIENTED_EDGE ( 'NONE', *, *, #140, .F. ) ;
#314 = CIRCLE ( 'NONE', #339, 10.00000000000000000 ) ;
#315 = DIRECTION ( 'NONE',  ( 0.000000000000000000, 0.000000000000000000, -1.000000000000000000 ) ) ;
#316 = DIRECTION ( 'NONE',  ( 0.000000000000000000, 0.000000000000000000, 1.000000000000000000 ) ) ;
#317 = CARTESIAN_POINT ( 'NONE',  ( 0.000000000000000000, -9.499999999999998224, 10.00000000000000000 ) ) ;
#318 = ORIENTED_EDGE ( 'NONE', *, *, #238, .F. ) ;
#319 = CARTESIAN_POINT ( 'NONE',  ( 0.000000000000000000, 0.000000000000000000, -9.499999999999994671 ) ) ;
#320 = VECTOR ( 'NONE', #48, 1000.000000000000000 ) ;
#321 = DIRECTION ( 'NONE',  ( -0.000000000000000000, 1.000000000000000000, -0.000000000000000000 ) ) ;
#322 = PLANE ( 'NONE',  #367 ) ;
#323 = FACE_OUTER_BOUND ( 'NONE', #31, .T. ) ;
#324 = DIRECTION ( 'NONE',  ( 0.000000000000000000, 0.000000000000000000, 1.000000000000000000 ) ) ;
#325 = CONICAL_SURFACE ( 'NONE', #81, 6.699999999999999289, 0.7853981633974447263 ) ;
#326 = DIRECTION ( 'NONE',  ( 0.000000000000000000, 1.000000000000000000, 0.000000000000000000 ) ) ;
#327 = ORIENTED_EDGE ( 'NONE', *, *, #120, .F. ) ;
#328 = DIRECTION ( 'NONE',  ( -0.000000000000000000, -1.000000000000000000, -0.000000000000000000 ) ) ;
#329 = EDGE_LOOP ( 'NONE', ( #372, #247 ) ) ;
#330 = DIRECTION ( 'NONE',  ( -0.000000000000000000, 1.000000000000000000, -0.000000000000000000 ) ) ;
#331 = CIRCLE ( 'NONE', #154, 9.499999999999996447 ) ;
#332 = ADVANCED_BREP_SHAPE_REPRESENTATION ( 'CYC-028', ( #106, #264 ), #368 ) ;
#333 = CYLINDRICAL_SURFACE ( 'NONE', #376, 10.00000000000000000 ) ;
#334 = ORIENTED_EDGE ( 'NONE', *, *, #206, .F. ) ;
#335 = DIRECTION ( 'NONE',  ( 0.000000000000000000, 0.000000000000000000, -1.000000000000000000 ) ) ;
#336 = ORIENTED_EDGE ( 'NONE', *, *, #186, .T. ) ;
#337 = DIRECTION ( 'NONE',  ( -0.000000000000000000, 1.000000000000000000, -0.000000000000000000 ) ) ;
#338 = EDGE_CURVE ( 'NONE', #54, #273, #259, .T. ) ;
#339 = AXIS2_PLACEMENT_3D ( 'NONE', #191, #183, #316 ) ;
#340 = CONICAL_SURFACE ( 'NONE', #58, 6.699999999999999289, 0.7853981633974447263 ) ;
#341 = DIRECTION ( 'NONE',  ( 0.000000000000000000, -0.7071067811865500152, -0.7071067811865450192 ) ) ;
#342 = ORIENTED_EDGE ( 'NONE', *, *, #11, .F. ) ;
#343 = LINE ( 'NONE', #317, #233 ) ;
#344 = ORIENTED_EDGE ( 'NONE', *, *, #338, .T. ) ;
#345 = DIRECTION ( 'NONE',  ( 0.000000000000000000, 1.000000000000000000, 0.000000000000000000 ) ) ;
#346 = ORIENTED_EDGE ( 'NONE', *, *, #11, .T. ) ;
#347 = CIRCLE ( 'NONE', #287, 9.499999999999994671 ) ;
#348 = AXIS2_PLACEMENT_3D ( 'NONE', #167, #234, #301 ) ;
#349 = EDGE_LOOP ( 'NONE', ( #29, #336, #388, #211 ) ) ;
#350 = SURFACE_SIDE_STYLE ('',( #162 ) ) ;
#351 = PRESENTATION_STYLE_ASSIGNMENT (( #73 ) ) ;
#352 = ADVANCED_FACE ( 'NONE', ( #219 ), #155, .F. ) ;
#353 = CIRCLE ( 'NONE', #49, 10.00000000000000000 ) ;
#354 = DIRECTION ( 'NONE',  ( 8.659560562354902043E-17, -0.7071067811865500152, 0.7071067811865450192 ) ) ;
#355 = ADVANCED_FACE ( 'NONE', ( #245 ), #340, .F. ) ;
#356 = DIRECTION ( 'NONE',  ( 0.000000000000000000, 0.000000000000000000, 1.000000000000000000 ) ) ;
#357 = CARTESIAN_POINT ( 'NONE',  ( 0.000000000000000000, -10.00000000000000000, 0.000000000000000000 ) ) ;
#358 = CONICAL_SURFACE ( 'NONE', #145, 10.00000000000000000, 0.7853981633974500554 ) ;
#359 = DIRECTION ( 'NONE',  ( 0.000000000000000000, 0.000000000000000000, -1.000000000000000000 ) ) ;
#360 = DIRECTION ( 'NONE',  ( 0.000000000000000000, 0.000000000000000000, -1.000000000000000000 ) ) ;
#361 = ORIENTED_EDGE ( 'NONE', *, *, #294, .T. ) ;
#362 = CARTESIAN_POINT ( 'NONE',  ( 1.224646799147353256E-15, -9.499999999999998224, -10.00000000000000000 ) ) ;
#363 = VECTOR ( 'NONE', #96, 1000.000000000000000 ) ;
#364 = DIRECTION ( 'NONE',  ( 0.000000000000000000, 0.000000000000000000, 1.000000000000000000 ) ) ;
#365 = EDGE_CURVE ( 'NONE', #78, #152, #94, .T. ) ;
#366 = VERTEX_POINT ( 'NONE', #151 ) ;
#367 = AXIS2_PLACEMENT_3D ( 'NONE', #256, #380, #291 ) ;
#368 =( GEOMETRIC_REPRESENTATION_CONTEXT ( 3 ) GLOBAL_UNCERTAINTY_ASSIGNED_CONTEXT ( ( #66 ) ) GLOBAL_UNIT_ASSIGNED_CONTEXT ( ( #62, #396, #149 ) ) REPRESENTATION_CONTEXT ( 'NONE', 'WORKASPACE' ) );
#369 = CARTESIAN_POINT ( 'NONE',  ( 0.000000000000000000, 0.000000000000000000, 0.000000000000000000 ) ) ;
#370 = EDGE_LOOP ( 'NONE', ( #346, #121, #117, #397 ) ) ;
#371 = LINE ( 'NONE', #34, #165 ) ;
#372 = ORIENTED_EDGE ( 'NONE', *, *, #235, .T. ) ;
#373 = UNCERTAINTY_MEASURE_WITH_UNIT (LENGTH_MEASURE( 1.000000000000000082E-05 ), #196, 'distance_accuracy_value', 'NONE');
#374 = APPLICATION_PROTOCOL_DEFINITION ( 'draft international standard', 'automotive_design', 1998, #280 ) ;
#375 = ORIENTED_EDGE ( 'NONE', *, *, #235, .F. ) ;
#376 = AXIS2_PLACEMENT_3D ( 'NONE', #21, #53, #262 ) ;
#377 = CARTESIAN_POINT ( 'NONE',  ( 0.000000000000000000, 0.000000000000000000, 0.000000000000000000 ) ) ;
#378 = EDGE_CURVE ( 'NONE', #67, #92, #371, .T. ) ;
#379 = CARTESIAN_POINT ( 'NONE',  ( 0.000000000000000000, -10.00000000000000000, -6.699999999999999289 ) ) ;
#380 = DIRECTION ( 'NONE',  ( 0.000000000000000000, -1.000000000000000000, 0.000000000000000000 ) ) ;
#381 = DIRECTION ( 'NONE',  ( 0.000000000000000000, 0.000000000000000000, -1.000000000000000000 ) ) ;
#382 = CARTESIAN_POINT ( 'NONE',  ( 0.000000000000000000, -0.5000000000000056621, 10.00000000000000000 ) ) ;
#383 = CARTESIAN_POINT ( 'NONE',  ( 7.592810154713590821E-16, -0.4999999999999943934, -6.200000000000001066 ) ) ;
#384 = EDGE_CURVE ( 'NONE', #242, #253, #182, .T. ) ;
#385 = VECTOR ( 'NONE', #199, 1000.000000000000114 ) ;
#386 = VERTEX_POINT ( 'NONE', #55 ) ;
#387 = DIRECTION ( 'NONE',  ( -0.000000000000000000, 1.000000000000000000, -0.000000000000000000 ) ) ;
#388 = ORIENTED_EDGE ( 'NONE', *, *, #159, .T. ) ;
#389 = DIRECTION ( 'NONE',  ( -0.000000000000000000, -1.000000000000000000, -0.000000000000000000 ) ) ;
#390 = EDGE_LOOP ( 'NONE', ( #60, #220, #286, #85 ) ) ;
#391 = DIRECTION ( 'NONE',  ( 0.000000000000000000, 0.000000000000000000, 1.000000000000000000 ) ) ;
#392 = EDGE_LOOP ( 'NONE', ( #144, #212, #52, #393 ) ) ;
#393 = ORIENTED_EDGE ( 'NONE', *, *, #294, .F. ) ;
#394 = CARTESIAN_POINT ( 'NONE',  ( 0.000000000000000000, -0.4999999999999943934, 6.200000000000001066 ) ) ;
#395 = ORIENTED_EDGE ( 'NONE', *, *, #100, .T. ) ;
#396 =( NAMED_UNIT ( * ) PLANE_ANGLE_UNIT ( ) SI_UNIT ( $, .RADIAN. ) );
#397 = ORIENTED_EDGE ( 'NONE', *, *, #159, .F. ) ;
#398 = VECTOR ( 'NONE', #150, 1000.000000000000000 ) ;
#399 = DIRECTION ( 'NONE',  ( 0.000000000000000000, -1.000000000000000000, 0.000000000000000000 ) ) ;
ENDSEC;
END-ISO-10303-21;
