ISO-10303-21;
HEADER;
FILE_DESCRIPTION (( 'STEP AP214' ),
    '1' );
FILE_NAME ('CYC-007.step',
    '2024-04-03T09:38:59',
    ( '' ),
    ( '' ),
    'SwSTEP 2.0',
    'SolidWorks 2024',
    '' );
FILE_SCHEMA (( 'AUTOMOTIVE_DESIGN' ));
ENDSEC;

DATA;
#1 = ORIENTED_EDGE ( 'NONE', *, *, #4, .F. ) ;
#2 = LINE ( 'NONE', #165, #21 ) ;
#3 = ORIENTED_EDGE ( 'NONE', *, *, #168, .F. ) ;
#4 = EDGE_CURVE ( 'NONE', #218, #150, #12, .T. ) ;
#5 = DIRECTION ( 'NONE',  ( -0.7071067811865474617, 8.659560562354932858E-17, -0.7071067811865474617 ) ) ;
#6 = EDGE_LOOP ( 'NONE', ( #278, #1 ) ) ;
#7 = CARTESIAN_POINT ( 'NONE',  ( 24.80000000000000426, 0.000000000000000000, 0.000000000000000000 ) ) ;
#8 = VECTOR ( 'NONE', #37, 1000.000000000000000 ) ;
#9 = ORIENTED_EDGE ( 'NONE', *, *, #160, .T. ) ;
#10 = FACE_BOUND ( 'NONE', #49, .T. ) ;
#11 = VERTEX_POINT ( 'NONE', #127 ) ;
#12 = CIRCLE ( 'NONE', #289, 2.499999999999999556 ) ;
#13 = AXIS2_PLACEMENT_3D ( 'NONE', #67, #96, #118 ) ;
#14 = DIRECTION ( 'NONE',  ( 1.000000000000000000, 0.000000000000000000, 0.000000000000000000 ) ) ;
#15 = SURFACE_STYLE_USAGE ( .BOTH. , #213 ) ;
#16 = ADVANCED_FACE ( 'NONE', ( #268 ), #261, .T. ) ;
#17 = LINE ( 'NONE', #231, #299 ) ;
#18 = CIRCLE ( 'NONE', #195, 3.799999999999994937 ) ;
#19 = CLOSED_SHELL ( 'NONE', ( #295, #130, #254, #205, #215, #28, #181, #56, #212, #16 ) ) ;
#20 =( LENGTH_UNIT ( ) NAMED_UNIT ( * ) SI_UNIT ( .MILLI., .METRE. ) );
#21 = VECTOR ( 'NONE', #5, 1000.000000000000114 ) ;
#22 = LINE ( 'NONE', #298, #119 ) ;
#23 = DIRECTION ( 'NONE',  ( -1.000000000000000000, -0.000000000000000000, -0.000000000000000000 ) ) ;
#24 = EDGE_CURVE ( 'NONE', #265, #240, #229, .T. ) ;
#25 = ADVANCED_BREP_SHAPE_REPRESENTATION ( 'CYC-007', ( #242, #237 ), #64 ) ;
#26 = MECHANICAL_DESIGN_GEOMETRIC_PRESENTATION_REPRESENTATION (  '', ( #86 ), #174 ) ;
#27 = EDGE_LOOP ( 'NONE', ( #72, #123, #120, #146 ) ) ;
#28 = ADVANCED_FACE ( 'NONE', ( #55, #10 ), #178, .F. ) ;
#29 = ORIENTED_EDGE ( 'NONE', *, *, #155, .T. ) ;
#30 = ORIENTED_EDGE ( 'NONE', *, *, #194, .T. ) ;
#31 = LINE ( 'NONE', #48, #207 ) ;
#32 = EDGE_LOOP ( 'NONE', ( #29, #9 ) ) ;
#33 = CARTESIAN_POINT ( 'NONE',  ( -25.00000000000000000, 0.000000000000000000, 0.000000000000000000 ) ) ;
#34 = LINE ( 'NONE', #245, #8 ) ;
#35 = ORIENTED_EDGE ( 'NONE', *, *, #244, .T. ) ;
#36 = LINE ( 'NONE', #286, #90 ) ;
#37 = DIRECTION ( 'NONE',  ( 0.7071067811865452413, 8.659560562354961208E-17, 0.7071067811865497932 ) ) ;
#38 = PLANE ( 'NONE',  #280 ) ;
#39 = CARTESIAN_POINT ( 'NONE',  ( 0.000000000000000000, 0.000000000000000000, 0.000000000000000000 ) ) ;
#40 = CARTESIAN_POINT ( 'NONE',  ( 25.00000000000000000, 0.000000000000000000, 0.000000000000000000 ) ) ;
#41 = DIRECTION ( 'NONE',  ( 0.000000000000000000, 0.000000000000000000, 1.000000000000000000 ) ) ;
#42 = EDGE_CURVE ( 'NONE', #144, #45, #223, .T. ) ;
#43 = CARTESIAN_POINT ( 'NONE',  ( -24.80000000000000071, 0.000000000000000000, 3.999999999999998224 ) ) ;
#44 = DIRECTION ( 'NONE',  ( -1.000000000000000000, -0.000000000000000000, -0.000000000000000000 ) ) ;
#45 = VERTEX_POINT ( 'NONE', #58 ) ;
#46 = CIRCLE ( 'NONE', #148, 2.499999999999999556 ) ;
#47 = EDGE_CURVE ( 'NONE', #144, #216, #34, .T. ) ;
#48 = CARTESIAN_POINT ( 'NONE',  ( 0.000000000000000000, 3.061616997868382648E-16, -2.499999999999999556 ) ) ;
#49 = EDGE_LOOP ( 'NONE', ( #30, #94 ) ) ;
#50 = FACE_OUTER_BOUND ( 'NONE', #51, .T. ) ;
#51 = EDGE_LOOP ( 'NONE', ( #139, #141, #279, #198 ) ) ;
#52 = ORIENTED_EDGE ( 'NONE', *, *, #68, .F. ) ;
#53 = AXIS2_PLACEMENT_3D ( 'NONE', #7, #101, #288 ) ;
#54 = DIRECTION ( 'NONE',  ( 0.000000000000000000, 0.000000000000000000, 1.000000000000000000 ) ) ;
#55 = FACE_OUTER_BOUND ( 'NONE', #32, .T. ) ;
#56 = ADVANCED_FACE ( 'NONE', ( #250 ), #152, .T. ) ;
#57 = CARTESIAN_POINT ( 'NONE',  ( 24.80000000000000426, 0.000000000000000000, 0.000000000000000000 ) ) ;
#58 = CARTESIAN_POINT ( 'NONE',  ( -25.00000000000000000, 0.000000000000000000, -3.799999999999994937 ) ) ;
#59 = DIRECTION ( 'NONE',  ( 1.000000000000000000, 0.000000000000000000, 0.000000000000000000 ) ) ;
#60 = AXIS2_PLACEMENT_3D ( 'NONE', #249, #227, #206 ) ;
#61 = LINE ( 'NONE', #87, #153 ) ;
#62 = SURFACE_STYLE_FILL_AREA ( #135 ) ;
#63 = PRODUCT_RELATED_PRODUCT_CATEGORY ( 'part', '', ( #161 ) ) ;
#64 =( GEOMETRIC_REPRESENTATION_CONTEXT ( 3 ) GLOBAL_UNCERTAINTY_ASSIGNED_CONTEXT ( ( #100 ) ) GLOBAL_UNIT_ASSIGNED_CONTEXT ( ( #267, #214, #73 ) ) REPRESENTATION_CONTEXT ( 'NONE', 'WORKASPACE' ) );
#65 = CARTESIAN_POINT ( 'NONE',  ( 25.00000000000000000, 4.776122516674676300E-16, -3.799999999999999378 ) ) ;
#66 = DIRECTION ( 'NONE',  ( -1.000000000000000000, -0.000000000000000000, -0.000000000000000000 ) ) ;
#67 = CARTESIAN_POINT ( 'NONE',  ( -25.00000000000000000, 0.000000000000000000, 0.000000000000000000 ) ) ;
#68 = EDGE_CURVE ( 'NONE', #11, #240, #36, .T. ) ;
#69 = CIRCLE ( 'NONE', #60, 3.999999999999998224 ) ;
#70 = EDGE_LOOP ( 'NONE', ( #81, #105, #76, #104 ) ) ;
#71 = PRESENTATION_LAYER_ASSIGNMENT (  '', '', ( #86 ) ) ;
#72 = ORIENTED_EDGE ( 'NONE', *, *, #234, .F. ) ;
#73 =( NAMED_UNIT ( * ) SI_UNIT ( $, .STERADIAN. ) SOLID_ANGLE_UNIT ( ) );
#74 = EDGE_LOOP ( 'NONE', ( #270, #145 ) ) ;
#75 = EDGE_CURVE ( 'NONE', #240, #216, #126, .T. ) ;
#76 = ORIENTED_EDGE ( 'NONE', *, *, #4, .T. ) ;
#77 = CIRCLE ( 'NONE', #129, 3.999999999999998224 ) ;
#78 = CARTESIAN_POINT ( 'NONE',  ( 25.00000000000000000, 2.499999999999999556, 0.000000000000000000 ) ) ;
#79 = DIRECTION ( 'NONE',  ( 1.000000000000000000, 0.000000000000000000, 0.000000000000000000 ) ) ;
#80 = CARTESIAN_POINT ( 'NONE',  ( 24.80000000000000426, 0.000000000000000000, 0.000000000000000000 ) ) ;
#81 = ORIENTED_EDGE ( 'NONE', *, *, #185, .F. ) ;
#82 = CARTESIAN_POINT ( 'NONE',  ( -24.80000000000000071, 0.000000000000000000, 0.000000000000000000 ) ) ;
#83 = PRODUCT_DEFINITION_SHAPE ( 'NONE', 'NONE',  #140 ) ;
#84 = PRESENTATION_STYLE_ASSIGNMENT (( #15 ) ) ;
#85 = AXIS2_PLACEMENT_3D ( 'NONE', #204, #248, #230 ) ;
#86 = STYLED_ITEM ( 'NONE', ( #84 ), #242 ) ;
#87 = CARTESIAN_POINT ( 'NONE',  ( 0.000000000000000000, 0.000000000000000000, 2.499999999999999556 ) ) ;
#88 = DIRECTION ( 'NONE',  ( 0.000000000000000000, 0.000000000000000000, 1.000000000000000000 ) ) ;
#89 = DIRECTION ( 'NONE',  ( -1.000000000000000000, -0.000000000000000000, -0.000000000000000000 ) ) ;
#90 = VECTOR ( 'NONE', #128, 1000.000000000000114 ) ;
#91 = FILL_AREA_STYLE_COLOUR ( '', #138 ) ;
#92 = CARTESIAN_POINT ( 'NONE',  ( 0.000000000000000000, 0.000000000000000000, 0.000000000000000000 ) ) ;
#93 = ORIENTED_EDGE ( 'NONE', *, *, #269, .T. ) ;
#94 = ORIENTED_EDGE ( 'NONE', *, *, #185, .T. ) ;
#95 = ORIENTED_EDGE ( 'NONE', *, *, #160, .F. ) ;
#96 = DIRECTION ( 'NONE',  ( -1.000000000000000000, 0.000000000000000000, 0.000000000000000000 ) ) ;
#97 = EDGE_LOOP ( 'NONE', ( #281, #263, #176, #93 ) ) ;
#98 = DIRECTION ( 'NONE',  ( 1.000000000000000000, 0.000000000000000000, 0.000000000000000000 ) ) ;
#99 = ORIENTED_EDGE ( 'NONE', *, *, #246, .T. ) ;
#100 = UNCERTAINTY_MEASURE_WITH_UNIT (LENGTH_MEASURE( 1.000000000000000082E-05 ), #267, 'distance_accuracy_value', 'NONE');
#101 = DIRECTION ( 'NONE',  ( -1.000000000000000000, -0.000000000000000000, -0.000000000000000000 ) ) ;
#102 = CIRCLE ( 'NONE', #163, 3.799999999999999378 ) ;
#103 = AXIS2_PLACEMENT_3D ( 'NONE', #296, #66, #41 ) ;
#104 = ORIENTED_EDGE ( 'NONE', *, *, #225, .F. ) ;
#105 = ORIENTED_EDGE ( 'NONE', *, *, #292, .T. ) ;
#106 = DIRECTION ( 'NONE',  ( 0.000000000000000000, 0.000000000000000000, 1.000000000000000000 ) ) ;
#107 = FACE_OUTER_BOUND ( 'NONE', #287, .T. ) ;
#108 = DIRECTION ( 'NONE',  ( 0.000000000000000000, 0.000000000000000000, -1.000000000000000000 ) ) ;
#109 = CARTESIAN_POINT ( 'NONE',  ( 0.000000000000000000, 0.000000000000000000, 0.000000000000000000 ) ) ;
#110 = AXIS2_PLACEMENT_3D ( 'NONE', #177, #275, #158 ) ;
#111 = CARTESIAN_POINT ( 'NONE',  ( 25.00000000000000000, 3.061616997868382648E-16, -2.499999999999999556 ) ) ;
#112 = EDGE_CURVE ( 'NONE', #240, #265, #77, .T. ) ;
#113 = FACE_OUTER_BOUND ( 'NONE', #27, .T. ) ;
#114 = CYLINDRICAL_SURFACE ( 'NONE', #276, 3.999999999999998224 ) ;
#115 = AXIS2_PLACEMENT_3D ( 'NONE', #82, #14, #202 ) ;
#116 = EDGE_LOOP ( 'NONE', ( #169, #260, #117, #284 ) ) ;
#117 = ORIENTED_EDGE ( 'NONE', *, *, #68, .T. ) ;
#118 = DIRECTION ( 'NONE',  ( 0.000000000000000000, 0.000000000000000000, 1.000000000000000000 ) ) ;
#119 = VECTOR ( 'NONE', #264, 1000.000000000000000 ) ;
#120 = ORIENTED_EDGE ( 'NONE', *, *, #75, .T. ) ;
#121 = EDGE_CURVE ( 'NONE', #124, #216, #172, .T. ) ;
#122 = SHAPE_DEFINITION_REPRESENTATION ( #83, #25 ) ;
#123 = ORIENTED_EDGE ( 'NONE', *, *, #24, .T. ) ;
#124 = VERTEX_POINT ( 'NONE', #273 ) ;
#125 = CARTESIAN_POINT ( 'NONE',  ( 0.000000000000000000, 0.000000000000000000, 3.999999999999998224 ) ) ;
#126 = LINE ( 'NONE', #125, #266 ) ;
#127 = CARTESIAN_POINT ( 'NONE',  ( 25.00000000000000000, 0.000000000000000000, 3.799999999999999378 ) ) ;
#128 = DIRECTION ( 'NONE',  ( -0.7071067811865474617, 0.000000000000000000, 0.7071067811865474617 ) ) ;
#129 = AXIS2_PLACEMENT_3D ( 'NONE', #80, #180, #271 ) ;
#130 = ADVANCED_FACE ( 'NONE', ( #107 ), #200, .T. ) ;
#131 = AXIS2_PLACEMENT_3D ( 'NONE', #92, #44, #282 ) ;
#132 = DIRECTION ( 'NONE',  ( -1.000000000000000000, -0.000000000000000000, -0.000000000000000000 ) ) ;
#133 = CARTESIAN_POINT ( 'NONE',  ( 0.000000000000000000, 0.000000000000000000, 0.000000000000000000 ) ) ;
#134 = EDGE_CURVE ( 'NONE', #216, #124, #69, .T. ) ;
#135 = FILL_AREA_STYLE ('',( #91 ) ) ;
#136 = CARTESIAN_POINT ( 'NONE',  ( -25.00000000000000000, 2.499999999999999556, 0.000000000000000000 ) ) ;
#137 = DIRECTION ( 'NONE',  ( -1.000000000000000000, -0.000000000000000000, -0.000000000000000000 ) ) ;
#138 = COLOUR_RGB ( '',0.6470588235294117974, 0.6196078431372549211, 0.5882352941176470784 ) ;
#139 = ORIENTED_EDGE ( 'NONE', *, *, #42, .F. ) ;
#140 = PRODUCT_DEFINITION ( 'UNKNOWN', '', #201, #228 ) ;
#141 = ORIENTED_EDGE ( 'NONE', *, *, #47, .T. ) ;
#142 = CARTESIAN_POINT ( 'NONE',  ( 0.000000000000000000, 0.000000000000000000, 0.000000000000000000 ) ) ;
#143 = AXIS2_PLACEMENT_3D ( 'NONE', #133, #137, #186 ) ;
#144 = VERTEX_POINT ( 'NONE', #291 ) ;
#145 = ORIENTED_EDGE ( 'NONE', *, *, #42, .T. ) ;
#146 = ORIENTED_EDGE ( 'NONE', *, *, #134, .T. ) ;
#147 = DIRECTION ( 'NONE',  ( -0.000000000000000000, 0.000000000000000000, 1.000000000000000000 ) ) ;
#148 = AXIS2_PLACEMENT_3D ( 'NONE', #40, #211, #257 ) ;
#149 = DIRECTION ( 'NONE',  ( -1.000000000000000000, -0.000000000000000000, -0.000000000000000000 ) ) ;
#150 = VERTEX_POINT ( 'NONE', #293 ) ;
#151 = DIRECTION ( 'NONE',  ( -1.000000000000000000, 0.000000000000000000, 0.000000000000000000 ) ) ;
#152 = CONICAL_SURFACE ( 'NONE', #53, 3.999999999999998224, 0.7853981633974482790 ) ;
#153 = VECTOR ( 'NONE', #89, 1000.000000000000000 ) ;
#154 = FACE_BOUND ( 'NONE', #6, .T. ) ;
#155 = EDGE_CURVE ( 'NONE', #11, #193, #102, .T. ) ;
#156 = CARTESIAN_POINT ( 'NONE',  ( 24.80000000000000426, 0.000000000000000000, 3.999999999999998224 ) ) ;
#157 = CIRCLE ( 'NONE', #13, 2.499999999999999556 ) ;
#158 = DIRECTION ( 'NONE',  ( 0.000000000000000000, 0.000000000000000000, 1.000000000000000000 ) ) ;
#159 = CARTESIAN_POINT ( 'NONE',  ( 25.00000000000000000, 0.000000000000000000, 2.499999999999999556 ) ) ;
#160 = EDGE_CURVE ( 'NONE', #193, #11, #247, .T. ) ;
#161 = PRODUCT ( 'CYC-007', 'CYC-007', '', ( #217 ) ) ;
#162 = CARTESIAN_POINT ( 'NONE',  ( 24.80000000000000426, 4.898587196589410857E-16, -3.999999999999998224 ) ) ;
#163 = AXIS2_PLACEMENT_3D ( 'NONE', #183, #59, #54 ) ;
#164 = CONICAL_SURFACE ( 'NONE', #285, 3.799999999999994937, 0.7853981633974514986 ) ;
#165 = CARTESIAN_POINT ( 'NONE',  ( 24.80000000000000426, 4.898587196589410857E-16, -3.999999999999998224 ) ) ;
#166 = ORIENTED_EDGE ( 'NONE', *, *, #112, .T. ) ;
#167 = APPLICATION_CONTEXT ( 'automotive_design' ) ;
#168 = EDGE_CURVE ( 'NONE', #45, #144, #18, .T. ) ;
#169 = ORIENTED_EDGE ( 'NONE', *, *, #246, .F. ) ;
#170 = CYLINDRICAL_SURFACE ( 'NONE', #131, 3.999999999999998224 ) ;
#171 = ORIENTED_EDGE ( 'NONE', *, *, #47, .F. ) ;
#172 = CIRCLE ( 'NONE', #115, 3.999999999999998224 ) ;
#173 = FACE_OUTER_BOUND ( 'NONE', #238, .T. ) ;
#174 =( GEOMETRIC_REPRESENTATION_CONTEXT ( 3 ) GLOBAL_UNCERTAINTY_ASSIGNED_CONTEXT ( ( #259 ) ) GLOBAL_UNIT_ASSIGNED_CONTEXT ( ( #20, #253, #187 ) ) REPRESENTATION_CONTEXT ( 'NONE', 'WORKASPACE' ) );
#175 = APPLICATION_CONTEXT ( 'automotive_design' ) ;
#176 = ORIENTED_EDGE ( 'NONE', *, *, #225, .T. ) ;
#177 = CARTESIAN_POINT ( 'NONE',  ( 25.00000000000000000, 0.000000000000000000, 0.000000000000000000 ) ) ;
#178 = PLANE ( 'NONE',  #179 ) ;
#179 = AXIS2_PLACEMENT_3D ( 'NONE', #78, #182, #147 ) ;
#180 = DIRECTION ( 'NONE',  ( -1.000000000000000000, -0.000000000000000000, -0.000000000000000000 ) ) ;
#181 = ADVANCED_FACE ( 'NONE', ( #113 ), #114, .T. ) ;
#182 = DIRECTION ( 'NONE',  ( -1.000000000000000000, 0.000000000000000000, -0.000000000000000000 ) ) ;
#183 = CARTESIAN_POINT ( 'NONE',  ( 25.00000000000000000, 0.000000000000000000, 0.000000000000000000 ) ) ;
#184 = DIRECTION ( 'NONE',  ( 0.000000000000000000, 0.000000000000000000, 1.000000000000000000 ) ) ;
#185 = EDGE_CURVE ( 'NONE', #199, #220, #46, .T. ) ;
#186 = DIRECTION ( 'NONE',  ( 0.000000000000000000, 0.000000000000000000, 1.000000000000000000 ) ) ;
#187 =( NAMED_UNIT ( * ) SI_UNIT ( $, .STERADIAN. ) SOLID_ANGLE_UNIT ( ) );
#188 = DIRECTION ( 'NONE',  ( 0.000000000000000000, 0.000000000000000000, 1.000000000000000000 ) ) ;
#189 = AXIS2_PLACEMENT_3D ( 'NONE', #203, #79, #272 ) ;
#190 = FACE_OUTER_BOUND ( 'NONE', #97, .T. ) ;
#191 = ORIENTED_EDGE ( 'NONE', *, *, #75, .F. ) ;
#192 = DIRECTION ( 'NONE',  ( -1.000000000000000000, -0.000000000000000000, -0.000000000000000000 ) ) ;
#193 = VERTEX_POINT ( 'NONE', #65 ) ;
#194 = EDGE_CURVE ( 'NONE', #220, #199, #233, .T. ) ;
#195 = AXIS2_PLACEMENT_3D ( 'NONE', #255, #209, #108 ) ;
#196 = AXIS2_PLACEMENT_3D ( 'NONE', #251, #132, #224 ) ;
#197 = ORIENTED_EDGE ( 'NONE', *, *, #112, .F. ) ;
#198 = ORIENTED_EDGE ( 'NONE', *, *, #244, .F. ) ;
#199 = VERTEX_POINT ( 'NONE', #111 ) ;
#200 = CONICAL_SURFACE ( 'NONE', #210, 3.999999999999998224, 0.7853981633974482790 ) ;
#201 = PRODUCT_DEFINITION_FORMATION_WITH_SPECIFIED_SOURCE ( 'ANY', '', #161, .NOT_KNOWN. ) ;
#202 = DIRECTION ( 'NONE',  ( 0.000000000000000000, 0.000000000000000000, -1.000000000000000000 ) ) ;
#203 = CARTESIAN_POINT ( 'NONE',  ( -25.00000000000000000, 0.000000000000000000, 0.000000000000000000 ) ) ;
#204 = CARTESIAN_POINT ( 'NONE',  ( -25.00000000000000000, 0.000000000000000000, 0.000000000000000000 ) ) ;
#205 = ADVANCED_FACE ( 'NONE', ( #297 ), #274, .F. ) ;
#206 = DIRECTION ( 'NONE',  ( 0.000000000000000000, 0.000000000000000000, -1.000000000000000000 ) ) ;
#207 = VECTOR ( 'NONE', #192, 1000.000000000000000 ) ;
#208 = DIRECTION ( 'NONE',  ( 0.000000000000000000, 0.000000000000000000, 1.000000000000000000 ) ) ;
#209 = DIRECTION ( 'NONE',  ( -1.000000000000000000, 0.000000000000000000, 0.000000000000000000 ) ) ;
#210 = AXIS2_PLACEMENT_3D ( 'NONE', #57, #149, #208 ) ;
#211 = DIRECTION ( 'NONE',  ( -1.000000000000000000, -0.000000000000000000, -0.000000000000000000 ) ) ;
#212 = ADVANCED_FACE ( 'NONE', ( #232, #154 ), #38, .F. ) ;
#213 = SURFACE_SIDE_STYLE ('',( #62 ) ) ;
#214 =( NAMED_UNIT ( * ) PLANE_ANGLE_UNIT ( ) SI_UNIT ( $, .RADIAN. ) );
#215 = ADVANCED_FACE ( 'NONE', ( #190 ), #235, .F. ) ;
#216 = VERTEX_POINT ( 'NONE', #43 ) ;
#217 = PRODUCT_CONTEXT ( 'NONE', #175, 'mechanical' ) ;
#218 = VERTEX_POINT ( 'NONE', #277 ) ;
#219 = DIRECTION ( 'NONE',  ( 1.000000000000000000, 0.000000000000000000, 0.000000000000000000 ) ) ;
#220 = VERTEX_POINT ( 'NONE', #159 ) ;
#221 = CARTESIAN_POINT ( 'NONE',  ( -25.00000000000000000, 0.000000000000000000, 0.000000000000000000 ) ) ;
#222 = ORIENTED_EDGE ( 'NONE', *, *, #234, .T. ) ;
#223 = CIRCLE ( 'NONE', #85, 3.799999999999994937 ) ;
#224 = DIRECTION ( 'NONE',  ( 0.000000000000000000, 0.000000000000000000, 1.000000000000000000 ) ) ;
#225 = EDGE_CURVE ( 'NONE', #220, #150, #61, .T. ) ;
#226 = DIRECTION ( 'NONE',  ( -1.000000000000000000, -0.000000000000000000, -0.000000000000000000 ) ) ;
#227 = DIRECTION ( 'NONE',  ( 1.000000000000000000, 0.000000000000000000, 0.000000000000000000 ) ) ;
#228 = PRODUCT_DEFINITION_CONTEXT ( 'detailed design', #167, 'design' ) ;
#229 = CIRCLE ( 'NONE', #196, 3.999999999999998224 ) ;
#230 = DIRECTION ( 'NONE',  ( 0.000000000000000000, 0.000000000000000000, -1.000000000000000000 ) ) ;
#231 = CARTESIAN_POINT ( 'NONE',  ( 0.000000000000000000, 4.898587196589410857E-16, -3.999999999999998224 ) ) ;
#232 = FACE_OUTER_BOUND ( 'NONE', #74, .T. ) ;
#233 = CIRCLE ( 'NONE', #103, 2.499999999999999556 ) ;
#234 = EDGE_CURVE ( 'NONE', #265, #124, #17, .T. ) ;
#235 = CYLINDRICAL_SURFACE ( 'NONE', #290, 2.499999999999999556 ) ;
#236 = DIRECTION ( 'NONE',  ( 0.000000000000000000, 0.000000000000000000, -1.000000000000000000 ) ) ;
#237 = AXIS2_PLACEMENT_3D ( 'NONE', #142, #262, #98 ) ;
#238 = EDGE_LOOP ( 'NONE', ( #166, #222, #239, #191 ) ) ;
#239 = ORIENTED_EDGE ( 'NONE', *, *, #121, .T. ) ;
#240 = VERTEX_POINT ( 'NONE', #156 ) ;
#241 = APPLICATION_PROTOCOL_DEFINITION ( 'draft international standard', 'automotive_design', 1998, #175 ) ;
#242 = MANIFOLD_SOLID_BREP ( 'Symétrie1', #19 ) ;
#243 = ORIENTED_EDGE ( 'NONE', *, *, #134, .F. ) ;
#244 = EDGE_CURVE ( 'NONE', #45, #124, #22, .T. ) ;
#245 = CARTESIAN_POINT ( 'NONE',  ( -25.00000000000000000, 4.653657836759935827E-16, 3.799999999999994937 ) ) ;
#246 = EDGE_CURVE ( 'NONE', #193, #265, #2, .T. ) ;
#247 = CIRCLE ( 'NONE', #110, 3.799999999999999378 ) ;
#248 = DIRECTION ( 'NONE',  ( -1.000000000000000000, 0.000000000000000000, 0.000000000000000000 ) ) ;
#249 = CARTESIAN_POINT ( 'NONE',  ( -24.80000000000000071, 0.000000000000000000, 0.000000000000000000 ) ) ;
#250 = FACE_OUTER_BOUND ( 'NONE', #116, .T. ) ;
#251 = CARTESIAN_POINT ( 'NONE',  ( 24.80000000000000426, 0.000000000000000000, 0.000000000000000000 ) ) ;
#252 = DIRECTION ( 'NONE',  ( -1.000000000000000000, -0.000000000000000000, -0.000000000000000000 ) ) ;
#253 =( NAMED_UNIT ( * ) PLANE_ANGLE_UNIT ( ) SI_UNIT ( $, .RADIAN. ) );
#254 = ADVANCED_FACE ( 'NONE', ( #173 ), #170, .T. ) ;
#255 = CARTESIAN_POINT ( 'NONE',  ( -25.00000000000000000, 0.000000000000000000, 0.000000000000000000 ) ) ;
#256 = DIRECTION ( 'NONE',  ( -1.000000000000000000, -0.000000000000000000, -0.000000000000000000 ) ) ;
#257 = DIRECTION ( 'NONE',  ( 0.000000000000000000, 0.000000000000000000, 1.000000000000000000 ) ) ;
#258 = APPLICATION_PROTOCOL_DEFINITION ( 'draft international standard', 'automotive_design', 1998, #167 ) ;
#259 = UNCERTAINTY_MEASURE_WITH_UNIT (LENGTH_MEASURE( 1.000000000000000082E-05 ), #20, 'distance_accuracy_value', 'NONE');
#260 = ORIENTED_EDGE ( 'NONE', *, *, #155, .F. ) ;
#261 = CONICAL_SURFACE ( 'NONE', #189, 3.799999999999994937, 0.7853981633974514986 ) ;
#262 = DIRECTION ( 'NONE',  ( 0.000000000000000000, 0.000000000000000000, 1.000000000000000000 ) ) ;
#263 = ORIENTED_EDGE ( 'NONE', *, *, #194, .F. ) ;
#264 = DIRECTION ( 'NONE',  ( 0.7071067811865452413, 0.000000000000000000, -0.7071067811865497932 ) ) ;
#265 = VERTEX_POINT ( 'NONE', #162 ) ;
#266 = VECTOR ( 'NONE', #226, 1000.000000000000000 ) ;
#267 =( LENGTH_UNIT ( ) NAMED_UNIT ( * ) SI_UNIT ( .MILLI., .METRE. ) );
#268 = FACE_OUTER_BOUND ( 'NONE', #283, .T. ) ;
#269 = EDGE_CURVE ( 'NONE', #150, #218, #157, .T. ) ;
#270 = ORIENTED_EDGE ( 'NONE', *, *, #168, .T. ) ;
#271 = DIRECTION ( 'NONE',  ( 0.000000000000000000, 0.000000000000000000, 1.000000000000000000 ) ) ;
#272 = DIRECTION ( 'NONE',  ( 0.000000000000000000, 0.000000000000000000, -1.000000000000000000 ) ) ;
#273 = CARTESIAN_POINT ( 'NONE',  ( -24.80000000000000071, 4.898587196589410857E-16, -3.999999999999998224 ) ) ;
#274 = CYLINDRICAL_SURFACE ( 'NONE', #143, 2.499999999999999556 ) ;
#275 = DIRECTION ( 'NONE',  ( 1.000000000000000000, 0.000000000000000000, 0.000000000000000000 ) ) ;
#276 = AXIS2_PLACEMENT_3D ( 'NONE', #39, #256, #184 ) ;
#277 = CARTESIAN_POINT ( 'NONE',  ( -25.00000000000000000, 3.061616997868382648E-16, -2.499999999999999556 ) ) ;
#278 = ORIENTED_EDGE ( 'NONE', *, *, #269, .F. ) ;
#279 = ORIENTED_EDGE ( 'NONE', *, *, #121, .F. ) ;
#280 = AXIS2_PLACEMENT_3D ( 'NONE', #136, #294, #188 ) ;
#281 = ORIENTED_EDGE ( 'NONE', *, *, #292, .F. ) ;
#282 = DIRECTION ( 'NONE',  ( 0.000000000000000000, 0.000000000000000000, 1.000000000000000000 ) ) ;
#283 = EDGE_LOOP ( 'NONE', ( #171, #3, #35, #243 ) ) ;
#284 = ORIENTED_EDGE ( 'NONE', *, *, #24, .F. ) ;
#285 = AXIS2_PLACEMENT_3D ( 'NONE', #221, #219, #236 ) ;
#286 = CARTESIAN_POINT ( 'NONE',  ( 24.80000000000000426, 0.000000000000000000, 3.999999999999998224 ) ) ;
#287 = EDGE_LOOP ( 'NONE', ( #95, #99, #197, #52 ) ) ;
#288 = DIRECTION ( 'NONE',  ( 0.000000000000000000, 0.000000000000000000, 1.000000000000000000 ) ) ;
#289 = AXIS2_PLACEMENT_3D ( 'NONE', #33, #151, #106 ) ;
#290 = AXIS2_PLACEMENT_3D ( 'NONE', #109, #252, #88 ) ;
#291 = CARTESIAN_POINT ( 'NONE',  ( -25.00000000000000000, 4.776122516674673342E-16, 3.799999999999994937 ) ) ;
#292 = EDGE_CURVE ( 'NONE', #199, #218, #31, .T. ) ;
#293 = CARTESIAN_POINT ( 'NONE',  ( -25.00000000000000000, 0.000000000000000000, 2.499999999999999556 ) ) ;
#294 = DIRECTION ( 'NONE',  ( 1.000000000000000000, 0.000000000000000000, -0.000000000000000000 ) ) ;
#295 = ADVANCED_FACE ( 'NONE', ( #50 ), #164, .T. ) ;
#296 = CARTESIAN_POINT ( 'NONE',  ( 25.00000000000000000, 0.000000000000000000, 0.000000000000000000 ) ) ;
#297 = FACE_OUTER_BOUND ( 'NONE', #70, .T. ) ;
#298 = CARTESIAN_POINT ( 'NONE',  ( -25.00000000000000000, 0.000000000000000000, -3.799999999999994937 ) ) ;
#299 = VECTOR ( 'NONE', #23, 1000.000000000000000 ) ;
ENDSEC;
END-ISO-10303-21;
