ISO-10303-21;
HEADER;
FILE_DESCRIPTION(('STEP AP214'),'1');
FILE_NAME('support verrou verrou.stp','2024-04-09T15:20:34',(' '),(' '),'Spatial InterOp 3D',' ',' ');
FILE_SCHEMA(('AUTOMOTIVE_DESIGN { 1 0 10303 214 1 1 1 1 }'));
ENDSEC;
DATA;
#1=MECHANICAL_DESIGN_GEOMETRIC_PRESENTATION_REPRESENTATION(' ',(#58,#59,#60,#61,#62,#63,#64,#65,#66,#67,#68,#69,#70,#71,#72,#73),#6);
#2=PRODUCT_DEFINITION_CONTEXT('',#74,'design');
#3=APPLICATION_PROTOCOL_DEFINITION('INTERNATIONAL STANDARD','automotive_design',1994,#74);
#4=PRODUCT_CATEGORY_RELATIONSHIP('NONE','NONE',#75,#76);
#5=SHAPE_DEFINITION_REPRESENTATION(#77,#78);
#6= (GEOMETRIC_REPRESENTATION_CONTEXT(3)GLOBAL_UNCERTAINTY_ASSIGNED_CONTEXT((#81))GLOBAL_UNIT_ASSIGNED_CONTEXT((#83,#84,#85))REPRESENTATION_CONTEXT('NONE','WORKSPACE'));
#7=PROPERTY_DEFINITION_REPRESENTATION(#87,#88);
#8=GENERAL_PROPERTY_ASSOCIATION('','',#89,#87);
#9=PROPERTY_DEFINITION_REPRESENTATION(#90,#91);
#10=GENERAL_PROPERTY_ASSOCIATION('','',#92,#90);
#11=PROPERTY_DEFINITION_REPRESENTATION(#93,#94);
#12=GENERAL_PROPERTY_ASSOCIATION('','',#95,#93);
#13=PROPERTY_DEFINITION_REPRESENTATION(#96,#97);
#14=GENERAL_PROPERTY_ASSOCIATION('','',#98,#96);
#15=PROPERTY_DEFINITION_REPRESENTATION(#99,#100);
#16=GENERAL_PROPERTY_ASSOCIATION('','',#101,#99);
#17=PROPERTY_DEFINITION_REPRESENTATION(#102,#103);
#18=GENERAL_PROPERTY_ASSOCIATION('','',#104,#102);
#19=PROPERTY_DEFINITION_REPRESENTATION(#105,#106);
#20=GENERAL_PROPERTY_ASSOCIATION('','',#107,#105);
#21=PROPERTY_DEFINITION_REPRESENTATION(#108,#109);
#22=GENERAL_PROPERTY_ASSOCIATION('','',#110,#108);
#23=PROPERTY_DEFINITION_REPRESENTATION(#111,#112);
#24=GENERAL_PROPERTY_ASSOCIATION('','',#113,#111);
#25=PROPERTY_DEFINITION_REPRESENTATION(#114,#115);
#26=GENERAL_PROPERTY_ASSOCIATION('','',#116,#114);
#27=PROPERTY_DEFINITION_REPRESENTATION(#117,#118);
#28=GENERAL_PROPERTY_ASSOCIATION('','',#119,#117);
#29=PROPERTY_DEFINITION_REPRESENTATION(#120,#121);
#30=GENERAL_PROPERTY_ASSOCIATION('','',#122,#120);
#31=PROPERTY_DEFINITION_REPRESENTATION(#123,#124);
#32=GENERAL_PROPERTY_ASSOCIATION('','',#125,#123);
#33=PROPERTY_DEFINITION_REPRESENTATION(#126,#127);
#34=GENERAL_PROPERTY_ASSOCIATION('','',#128,#126);
#35=PROPERTY_DEFINITION_REPRESENTATION(#129,#130);
#36=GENERAL_PROPERTY_ASSOCIATION('','',#131,#129);
#37=PROPERTY_DEFINITION_REPRESENTATION(#132,#133);
#38=GENERAL_PROPERTY_ASSOCIATION('','',#134,#132);
#39=PROPERTY_DEFINITION_REPRESENTATION(#135,#136);
#40=GENERAL_PROPERTY_ASSOCIATION('','',#137,#135);
#41=PROPERTY_DEFINITION_REPRESENTATION(#138,#139);
#42=GENERAL_PROPERTY_ASSOCIATION('','',#140,#138);
#43=PROPERTY_DEFINITION_REPRESENTATION(#141,#142);
#44=GENERAL_PROPERTY_ASSOCIATION('','',#143,#141);
#45=PROPERTY_DEFINITION_REPRESENTATION(#144,#145);
#46=GENERAL_PROPERTY_ASSOCIATION('','',#146,#144);
#47=PROPERTY_DEFINITION_REPRESENTATION(#147,#148);
#48=GENERAL_PROPERTY_ASSOCIATION('','',#149,#147);
#49=PROPERTY_DEFINITION_REPRESENTATION(#150,#151);
#50=GENERAL_PROPERTY_ASSOCIATION('','',#152,#150);
#51=PROPERTY_DEFINITION_REPRESENTATION(#153,#154);
#52=GENERAL_PROPERTY_ASSOCIATION('','',#155,#153);
#53=PROPERTY_DEFINITION_REPRESENTATION(#156,#157);
#54=GENERAL_PROPERTY_ASSOCIATION('','',#158,#156);
#58=STYLED_ITEM('',(#159),#160);
#59=STYLED_ITEM('',(#161),#162);
#60=STYLED_ITEM('',(#163),#164);
#61=STYLED_ITEM('',(#165),#166);
#62=STYLED_ITEM('',(#167),#168);
#63=STYLED_ITEM('',(#169),#170);
#64=STYLED_ITEM('',(#171),#172);
#65=STYLED_ITEM('',(#173),#174);
#66=STYLED_ITEM('',(#175),#176);
#67=STYLED_ITEM('',(#177),#178);
#68=STYLED_ITEM('',(#179),#180);
#69=STYLED_ITEM('',(#181),#182);
#70=STYLED_ITEM('',(#183),#184);
#71=STYLED_ITEM('',(#185),#186);
#72=STYLED_ITEM('',(#187),#188);
#73=STYLED_ITEM('',(#189),#190);
#74=APPLICATION_CONTEXT(' ');
#75=PRODUCT_CATEGORY('part','NONE');
#76=PRODUCT_RELATED_PRODUCT_CATEGORY('detail',' ',(#191));
#77=PRODUCT_DEFINITION_SHAPE('NONE','NONE',#192);
#78=ADVANCED_BREP_SHAPE_REPRESENTATION('support verrou verrou',(#190,#193),#6);
#81=UNCERTAINTY_MEASURE_WITH_UNIT(LENGTH_MEASURE(0.001),#83,'','');
#83= (CONVERSION_BASED_UNIT('MILLIMETRE',#196)LENGTH_UNIT()NAMED_UNIT(#199));
#84= (NAMED_UNIT(#201)PLANE_ANGLE_UNIT()SI_UNIT($,.RADIAN.));
#85= (NAMED_UNIT(#201)SOLID_ANGLE_UNIT()SI_UNIT($,.STERADIAN.));
#87=PROPERTY_DEFINITION('PdmObjectId','',#192);
#88=REPRESENTATION('',(#207),#6);
#89=GENERAL_PROPERTY('','PdmObjectId','');
#90=PROPERTY_DEFINITION('Type de Production','',#192);
#91=REPRESENTATION('',(#208),#6);
#92=GENERAL_PROPERTY('','Type de Production','');
#93=PROPERTY_DEFINITION('Nom','',#192);
#94=REPRESENTATION('',(#209),#6);
#95=GENERAL_PROPERTY('','Nom','');
#96=PROPERTY_DEFINITION('Type de brut','',#192);
#97=REPRESENTATION('',(#210),#6);
#98=GENERAL_PROPERTY('','Type de brut','');
#99=PROPERTY_DEFINITION('Dimensions du brut','',#192);
#100=REPRESENTATION('',(#211),#6);
#101=GENERAL_PROPERTY('','Dimensions du brut','');
#102=PROPERTY_DEFINITION('Nom du brut','',#192);
#103=REPRESENTATION('',(#212),#6);
#104=GENERAL_PROPERTY('','Nom du brut','');
#105=PROPERTY_DEFINITION('D\X2\00E9\X0\signation du brut','',#192);
#106=REPRESENTATION('',(#213),#6);
#107=GENERAL_PROPERTY('','D\X2\00E9\X0\signation du brut','');
#108=PROPERTY_DEFINITION('R\X2\00E9\X0\f\X2\00E9\X0\rence du brut','',#192);
#109=REPRESENTATION('',(#214),#6);
#110=GENERAL_PROPERTY('','R\X2\00E9\X0\f\X2\00E9\X0\rence du brut','');
#111=PROPERTY_DEFINITION('R\X2\00E9\X0\vision majeure du brut','',#192);
#112=REPRESENTATION('',(#215),#6);
#113=GENERAL_PROPERTY('','R\X2\00E9\X0\vision majeure du brut','');
#114=PROPERTY_DEFINITION('D\X2\00E9\X0\signation de la r\X2\00E8\X0\gle de mise \X2\00E0\X0\ plat','',#192);
#115=REPRESENTATION('',(#216),#6);
#116=GENERAL_PROPERTY('','D\X2\00E9\X0\signation de la r\X2\00E8\X0\gle de mise \X2\00E0\X0\ plat','');
#117=PROPERTY_DEFINITION('R\X2\00E9\X0\f\X2\00E9\X0\rence de la r\X2\00E8\X0\gle de mise \X2\00E0\X0\ plat','',#192);
#118=REPRESENTATION('',(#217),#6);
#119=GENERAL_PROPERTY('','R\X2\00E9\X0\f\X2\00E9\X0\rence de la r\X2\00E8\X0\gle de mise \X2\00E0\X0\ plat','');
#120=PROPERTY_DEFINITION('Outil de pliage','',#192);
#121=REPRESENTATION('',(#218),#6);
#122=GENERAL_PROPERTY('','Outil de pliage','');
#123=PROPERTY_DEFINITION('D\X2\00E9\X0\signation du mat\X2\00E9\X0\riau','',#192);
#124=REPRESENTATION('',(#219),#6);
#125=GENERAL_PROPERTY('','D\X2\00E9\X0\signation du mat\X2\00E9\X0\riau','');
#126=PROPERTY_DEFINITION('Nom du mat\X2\00E9\X0\riau','',#192);
#127=REPRESENTATION('',(#220),#6);
#128=GENERAL_PROPERTY('','Nom du mat\X2\00E9\X0\riau','');
#129=PROPERTY_DEFINITION('BrutFinal','',#192);
#130=REPRESENTATION('',(#221),#6);
#131=GENERAL_PROPERTY('','BrutFinal','');
#132=PROPERTY_DEFINITION('BrutCylindrique','',#192);
#133=REPRESENTATION('',(#222),#6);
#134=GENERAL_PROPERTY('','BrutCylindrique','');
#135=PROPERTY_DEFINITION('Diam\X2\00E8\X0\treCylindreFormat\X2\00E9\X0\','',#192);
#136=REPRESENTATION('',(#223),#6);
#137=GENERAL_PROPERTY('','Diam\X2\00E8\X0\treCylindreFormat\X2\00E9\X0\','');
#138=PROPERTY_DEFINITION('LongueurCylindreFormat\X2\00E9\X0\','',#192);
#139=REPRESENTATION('',(#224),#6);
#140=GENERAL_PROPERTY('','LongueurCylindreFormat\X2\00E9\X0\','');
#141=PROPERTY_DEFINITION('BrutRectangulaire','',#192);
#142=REPRESENTATION('',(#225),#6);
#143=GENERAL_PROPERTY('','BrutRectangulaire','');
#144=PROPERTY_DEFINITION('TailleXBoiteFormat\X2\00E9\X0\','',#192);
#145=REPRESENTATION('',(#226),#6);
#146=GENERAL_PROPERTY('','TailleXBoiteFormat\X2\00E9\X0\','');
#147=PROPERTY_DEFINITION('TailleYBoiteFormat\X2\00E9\X0\','',#192);
#148=REPRESENTATION('',(#227),#6);
#149=GENERAL_PROPERTY('','TailleYBoiteFormat\X2\00E9\X0\','');
#150=PROPERTY_DEFINITION('TailleZBoiteFormat\X2\00E9\X0\','',#192);
#151=REPRESENTATION('',(#228),#6);
#152=GENERAL_PROPERTY('','TailleZBoiteFormat\X2\00E9\X0\','');
#153=PROPERTY_DEFINITION('CreationDate','',#192);
#154=REPRESENTATION('',(#229),#6);
#155=GENERAL_PROPERTY('','CreationDate','');
#156=PROPERTY_DEFINITION('Minor Revision','',#192);
#157=REPRESENTATION('',(#230),#6);
#158=GENERAL_PROPERTY('','Minor Revision','');
#159=PRESENTATION_STYLE_ASSIGNMENT((#231));
#160=ADVANCED_FACE('',(#232,#233),#234,.T.);
#161=PRESENTATION_STYLE_ASSIGNMENT((#235));
#162=ADVANCED_FACE('',(#236,#237),#238,.F.);
#163=PRESENTATION_STYLE_ASSIGNMENT((#239));
#164=ADVANCED_FACE('',(#240,#241),#242,.F.);
#165=PRESENTATION_STYLE_ASSIGNMENT((#243));
#166=ADVANCED_FACE('',(#244,#245),#246,.T.);
#167=PRESENTATION_STYLE_ASSIGNMENT((#247));
#168=ADVANCED_FACE('',(#248),#249,.T.);
#169=PRESENTATION_STYLE_ASSIGNMENT((#250));
#170=ADVANCED_FACE('',(#251),#252,.F.);
#171=PRESENTATION_STYLE_ASSIGNMENT((#253));
#172=ADVANCED_FACE('',(#254,#255),#256,.T.);
#173=PRESENTATION_STYLE_ASSIGNMENT((#257));
#174=ADVANCED_FACE('',(#258),#259,.T.);
#175=PRESENTATION_STYLE_ASSIGNMENT((#260));
#176=ADVANCED_FACE('',(#261),#262,.F.);
#177=PRESENTATION_STYLE_ASSIGNMENT((#263));
#178=ADVANCED_FACE('',(#264,#265),#266,.F.);
#179=PRESENTATION_STYLE_ASSIGNMENT((#267));
#180=ADVANCED_FACE('',(#268,#269),#270,.F.);
#181=PRESENTATION_STYLE_ASSIGNMENT((#271));
#182=ADVANCED_FACE('',(#272,#273),#274,.F.);
#183=PRESENTATION_STYLE_ASSIGNMENT((#275));
#184=ADVANCED_FACE('',(#276),#277,.T.);
#185=PRESENTATION_STYLE_ASSIGNMENT((#278));
#186=ADVANCED_FACE('',(#279,#280),#281,.T.);
#187=PRESENTATION_STYLE_ASSIGNMENT((#282));
#188=ADVANCED_FACE('',(#283,#284),#285,.F.);
#189=PRESENTATION_STYLE_ASSIGNMENT((#286));
#190=MANIFOLD_SOLID_BREP('support verrou verrou',#287);
#191=PRODUCT('support verrou verrou','PU246.03','support verrou verrou',(#288));
#192=PRODUCT_DEFINITION('','NONE',#289,#2);
#193=AXIS2_PLACEMENT_3D('',#290,#291,#292);
#196=LENGTH_MEASURE_WITH_UNIT(LENGTH_MEASURE(1.0),#293);
#199=DIMENSIONAL_EXPONENTS(1.0,0.0,0.0,0.0,0.0,0.0,0.0);
#201=DIMENSIONAL_EXPONENTS(0.0,0.0,0.0,0.0,0.0,0.0,0.0);
#207=DESCRIPTIVE_REPRESENTATION_ITEM('','19_31fdde81-cf7b-4217-ad29-3f13ae1aeb65&2_5613_13_13');
#208=DESCRIPTIVE_REPRESENTATION_ITEM('','Usinage');
#209=DESCRIPTIVE_REPRESENTATION_ITEM('','support verrou verrou');
#210=DESCRIPTIVE_REPRESENTATION_ITEM('','Non classifi\X2\00E9\X0\');
#211=DESCRIPTIVE_REPRESENTATION_ITEM('','');
#212=DESCRIPTIVE_REPRESENTATION_ITEM('','-');
#213=DESCRIPTIVE_REPRESENTATION_ITEM('','-');
#214=DESCRIPTIVE_REPRESENTATION_ITEM('','');
#215=DESCRIPTIVE_REPRESENTATION_ITEM('','');
#216=DESCRIPTIVE_REPRESENTATION_ITEM('','Taleau pliage');
#217=DESCRIPTIVE_REPRESENTATION_ITEM('','');
#218=DESCRIPTIVE_REPRESENTATION_ITEM('','<non sp\X2\00E9\X0\cifi\X2\00E9\X0\>');
#219=DESCRIPTIVE_REPRESENTATION_ITEM('','Acier E335 EN 10278');
#220=DESCRIPTIVE_REPRESENTATION_ITEM('','Acier E335 EN 10278');
#221=DESCRIPTIVE_REPRESENTATION_ITEM('','-');
#222=DESCRIPTIVE_REPRESENTATION_ITEM('','\X2\00D8\X0\ 40,00 \X2\00D7\X0\ 25,00');
#223=DESCRIPTIVE_REPRESENTATION_ITEM('','40,00');
#224=DESCRIPTIVE_REPRESENTATION_ITEM('','25,00');
#225=DESCRIPTIVE_REPRESENTATION_ITEM('','38,00 \X2\00D7\X0\ 30,00 \X2\00D7\X0\ 25,00');
#226=DESCRIPTIVE_REPRESENTATION_ITEM('','38,00');
#227=DESCRIPTIVE_REPRESENTATION_ITEM('','30,00');
#228=DESCRIPTIVE_REPRESENTATION_ITEM('','25,00');
#229=DESCRIPTIVE_REPRESENTATION_ITEM('','02/06/2022 16:19:12');
#230=DESCRIPTIVE_REPRESENTATION_ITEM('','2');
#231=SURFACE_STYLE_USAGE(.BOTH.,#294);
#232=FACE_OUTER_BOUND('',#295,.T.);
#233=FACE_BOUND('',#296,.T.);
#234=CONICAL_SURFACE('',#297,5.5,0.785398163397448);
#235=SURFACE_STYLE_USAGE(.BOTH.,#298);
#236=FACE_OUTER_BOUND('',#299,.T.);
#237=FACE_BOUND('',#300,.T.);
#238=PLANE('',#301);
#239=SURFACE_STYLE_USAGE(.BOTH.,#302);
#240=FACE_OUTER_BOUND('',#303,.T.);
#241=FACE_BOUND('',#304,.T.);
#242=PLANE('',#305);
#243=SURFACE_STYLE_USAGE(.BOTH.,#306);
#244=FACE_OUTER_BOUND('',#307,.T.);
#245=FACE_OUTER_BOUND('',#308,.T.);
#246=CYLINDRICAL_SURFACE('',#309,6.0);
#247=SURFACE_STYLE_USAGE(.BOTH.,#310);
#248=FACE_OUTER_BOUND('',#311,.T.);
#249=CYLINDRICAL_SURFACE('',#312,12.5);
#250=SURFACE_STYLE_USAGE(.BOTH.,#313);
#251=FACE_OUTER_BOUND('',#314,.T.);
#252=PLANE('',#315);
#253=SURFACE_STYLE_USAGE(.BOTH.,#316);
#254=FACE_OUTER_BOUND('',#317,.T.);
#255=FACE_OUTER_BOUND('',#318,.T.);
#256=CYLINDRICAL_SURFACE('',#319,6.0);
#257=SURFACE_STYLE_USAGE(.BOTH.,#320);
#258=FACE_OUTER_BOUND('',#321,.T.);
#259=CONICAL_SURFACE('',#322,12.5,0.785398163397448);
#260=SURFACE_STYLE_USAGE(.BOTH.,#323);
#261=FACE_OUTER_BOUND('',#324,.T.);
#262=PLANE('',#325);
#263=SURFACE_STYLE_USAGE(.BOTH.,#326);
#264=FACE_OUTER_BOUND('',#327,.T.);
#265=FACE_BOUND('',#328,.T.);
#266=CONICAL_SURFACE('',#329,866.025403784439,1.0471975511966);
#267=SURFACE_STYLE_USAGE(.BOTH.,#330);
#268=FACE_OUTER_BOUND('',#331,.T.);
#269=FACE_OUTER_BOUND('',#332,.T.);
#270=CYLINDRICAL_SURFACE('',#333,3.4);
#271=SURFACE_STYLE_USAGE(.BOTH.,#334);
#272=FACE_OUTER_BOUND('',#335,.T.);
#273=FACE_OUTER_BOUND('',#336,.T.);
#274=CYLINDRICAL_SURFACE('',#337,3.4);
#275=SURFACE_STYLE_USAGE(.BOTH.,#338);
#276=FACE_OUTER_BOUND('',#339,.T.);
#277=CONICAL_SURFACE('',#340,12.0,0.785398163397448);
#278=SURFACE_STYLE_USAGE(.BOTH.,#341);
#279=FACE_BOUND('',#342,.T.);
#280=FACE_OUTER_BOUND('',#343,.T.);
#281=CONICAL_SURFACE('',#344,6.0,0.785398163397448);
#282=SURFACE_STYLE_USAGE(.BOTH.,#345);
#283=FACE_OUTER_BOUND('',#346,.T.);
#284=FACE_BOUND('',#347,.T.);
#285=PLANE('',#348);
#286=SURFACE_STYLE_USAGE(.BOTH.,#349);
#287=CLOSED_SHELL('',(#160,#162,#164,#166,#168,#170,#172,#174,#176,#178,#180,#182,#184,#186,#188));
#288=PRODUCT_CONTEXT('',#74,'mechanical');
#289=PRODUCT_DEFINITION_FORMATION_WITH_SPECIFIED_SOURCE('A','NONE',#191,.NOT_KNOWN.);
#290=CARTESIAN_POINT('',(0.0,0.0,0.0));
#291=DIRECTION('',(0.0,0.0,1.0));
#292=DIRECTION('',(1.0,0.0,0.0));
#293= (NAMED_UNIT(#199)LENGTH_UNIT()SI_UNIT(.MILLI.,.METRE.));
#294=SURFACE_SIDE_STYLE('',(#351));
#295=EDGE_LOOP('',(#352));
#296=EDGE_LOOP('',(#353));
#297=AXIS2_PLACEMENT_3D('',#354,#355,#356);
#298=SURFACE_SIDE_STYLE('',(#357));
#299=EDGE_LOOP('',(#358));
#300=EDGE_LOOP('',(#359));
#301=AXIS2_PLACEMENT_3D('',#360,#361,#362);
#302=SURFACE_SIDE_STYLE('',(#363));
#303=EDGE_LOOP('',(#364,#365));
#304=EDGE_LOOP('',(#366));
#305=AXIS2_PLACEMENT_3D('',#367,#368,#369);
#306=SURFACE_SIDE_STYLE('',(#370));
#307=EDGE_LOOP('',(#371));
#308=EDGE_LOOP('',(#372));
#309=AXIS2_PLACEMENT_3D('',#373,#374,#375);
#310=SURFACE_SIDE_STYLE('',(#376));
#311=EDGE_LOOP('',(#377,#378,#379,#380));
#312=AXIS2_PLACEMENT_3D('',#381,#382,#383);
#313=SURFACE_SIDE_STYLE('',(#384));
#314=EDGE_LOOP('',(#385));
#315=AXIS2_PLACEMENT_3D('',#386,#387,#388);
#316=SURFACE_SIDE_STYLE('',(#389));
#317=EDGE_LOOP('',(#390));
#318=EDGE_LOOP('',(#391));
#319=AXIS2_PLACEMENT_3D('',#392,#393,#394);
#320=SURFACE_SIDE_STYLE('',(#395));
#321=EDGE_LOOP('',(#396,#397,#398,#399));
#322=AXIS2_PLACEMENT_3D('',#400,#401,#402);
#323=SURFACE_SIDE_STYLE('',(#403));
#324=EDGE_LOOP('',(#404,#405,#406,#407,#408,#409,#410,#411));
#325=AXIS2_PLACEMENT_3D('',#412,#413,#414);
#326=SURFACE_SIDE_STYLE('',(#415));
#327=EDGE_LOOP('',(#416));
#328=VERTEX_LOOP('',#417);
#329=AXIS2_PLACEMENT_3D('',#418,#419,#420);
#330=SURFACE_SIDE_STYLE('',(#421));
#331=EDGE_LOOP('',(#422));
#332=EDGE_LOOP('',(#423));
#333=AXIS2_PLACEMENT_3D('',#424,#425,#426);
#334=SURFACE_SIDE_STYLE('',(#427));
#335=EDGE_LOOP('',(#428));
#336=EDGE_LOOP('',(#429));
#337=AXIS2_PLACEMENT_3D('',#430,#431,#432);
#338=SURFACE_SIDE_STYLE('',(#433));
#339=EDGE_LOOP('',(#434,#435,#436,#437));
#340=AXIS2_PLACEMENT_3D('',#438,#439,#440);
#341=SURFACE_SIDE_STYLE('',(#441));
#342=EDGE_LOOP('',(#442));
#343=EDGE_LOOP('',(#443));
#344=AXIS2_PLACEMENT_3D('',#444,#445,#446);
#345=SURFACE_SIDE_STYLE('',(#447));
#346=EDGE_LOOP('',(#448,#449));
#347=EDGE_LOOP('',(#450));
#348=AXIS2_PLACEMENT_3D('',#451,#452,#453);
#349=SURFACE_SIDE_STYLE('',(#454));
#351=SURFACE_STYLE_FILL_AREA(#455);
#352=ORIENTED_EDGE('',*,*,#456,.F.);
#353=ORIENTED_EDGE('',*,*,#457,.F.);
#354=CARTESIAN_POINT('',(-16.5,0.0,0.0));
#355=DIRECTION('',(1.0,-0.0,0.0));
#356=DIRECTION('',(0.0,0.0,-1.0));
#357=SURFACE_STYLE_FILL_AREA(#458);
#358=ORIENTED_EDGE('',*,*,#457,.T.);
#359=ORIENTED_EDGE('',*,*,#459,.F.);
#360=CARTESIAN_POINT('',(-16.5,3.0,0.0));
#361=DIRECTION('',(1.0,0.0,0.0));
#362=DIRECTION('',(0.0,0.0,-1.0));
#363=SURFACE_STYLE_FILL_AREA(#460);
#364=ORIENTED_EDGE('',*,*,#461,.T.);
#365=ORIENTED_EDGE('',*,*,#462,.T.);
#366=ORIENTED_EDGE('',*,*,#463,.F.);
#367=CARTESIAN_POINT('',(-10.5,9.25,0.0));
#368=DIRECTION('',(1.0,0.0,0.0));
#369=DIRECTION('',(0.0,0.0,-1.0));
#370=SURFACE_STYLE_FILL_AREA(#464);
#371=ORIENTED_EDGE('',*,*,#456,.T.);
#372=ORIENTED_EDGE('',*,*,#463,.T.);
#373=CARTESIAN_POINT('',(0.0,0.0,0.0));
#374=DIRECTION('',(-1.0,0.0,0.0));
#375=DIRECTION('',(0.0,0.0,1.0));
#376=SURFACE_STYLE_FILL_AREA(#465);
#377=ORIENTED_EDGE('',*,*,#466,.T.);
#378=ORIENTED_EDGE('',*,*,#467,.T.);
#379=ORIENTED_EDGE('',*,*,#468,.T.);
#380=ORIENTED_EDGE('',*,*,#469,.T.);
#381=CARTESIAN_POINT('',(0.0,0.0,0.0));
#382=DIRECTION('',(-1.0,0.0,0.0));
#383=DIRECTION('',(0.0,0.0,1.0));
#384=SURFACE_STYLE_FILL_AREA(#470);
#385=ORIENTED_EDGE('',*,*,#471,.T.);
#386=CARTESIAN_POINT('',(16.5,3.0,0.0));
#387=DIRECTION('',(-1.0,0.0,0.0));
#388=DIRECTION('',(0.0,0.0,1.0));
#389=SURFACE_STYLE_FILL_AREA(#472);
#390=ORIENTED_EDGE('',*,*,#473,.T.);
#391=ORIENTED_EDGE('',*,*,#474,.F.);
#392=CARTESIAN_POINT('',(0.0,0.0,0.0));
#393=DIRECTION('',(-1.0,0.0,0.0));
#394=DIRECTION('',(0.0,0.0,1.0));
#395=SURFACE_STYLE_FILL_AREA(#475);
#396=ORIENTED_EDGE('',*,*,#476,.F.);
#397=ORIENTED_EDGE('',*,*,#466,.F.);
#398=ORIENTED_EDGE('',*,*,#477,.F.);
#399=ORIENTED_EDGE('',*,*,#478,.F.);
#400=CARTESIAN_POINT('',(10.0,0.0,0.0));
#401=DIRECTION('',(-1.0,0.0,-0.0));
#402=DIRECTION('',(0.0,0.0,1.0));
#403=SURFACE_STYLE_FILL_AREA(#479);
#404=ORIENTED_EDGE('',*,*,#477,.T.);
#405=ORIENTED_EDGE('',*,*,#469,.F.);
#406=ORIENTED_EDGE('',*,*,#480,.T.);
#407=ORIENTED_EDGE('',*,*,#462,.F.);
#408=ORIENTED_EDGE('',*,*,#481,.T.);
#409=ORIENTED_EDGE('',*,*,#467,.F.);
#410=ORIENTED_EDGE('',*,*,#476,.T.);
#411=ORIENTED_EDGE('',*,*,#482,.F.);
#412=CARTESIAN_POINT('',(31.3927201313069,0.0,7.5));
#413=DIRECTION('',(0.0,0.0,-1.0));
#414=DIRECTION('',(0.0,-1.0,0.0));
#415=SURFACE_STYLE_FILL_AREA(#483);
#416=ORIENTED_EDGE('',*,*,#484,.F.);
#417=VERTEX_POINT('',#485);
#418=CARTESIAN_POINT('',(-493.287009084755,0.0,0.0));
#419=DIRECTION('',(-1.0,0.0,-0.0));
#420=DIRECTION('',(0.0,1.0,0.0));
#421=SURFACE_STYLE_FILL_AREA(#486);
#422=ORIENTED_EDGE('',*,*,#487,.T.);
#423=ORIENTED_EDGE('',*,*,#484,.T.);
#424=CARTESIAN_POINT('',(-16.5,0.0,0.0));
#425=DIRECTION('',(1.0,0.0,0.0));
#426=DIRECTION('',(0.0,1.0,0.0));
#427=SURFACE_STYLE_FILL_AREA(#488);
#428=ORIENTED_EDGE('',*,*,#459,.T.);
#429=ORIENTED_EDGE('',*,*,#487,.F.);
#430=CARTESIAN_POINT('',(-16.5,0.0,0.0));
#431=DIRECTION('',(1.0,0.0,0.0));
#432=DIRECTION('',(0.0,1.0,0.0));
#433=SURFACE_STYLE_FILL_AREA(#489);
#434=ORIENTED_EDGE('',*,*,#480,.F.);
#435=ORIENTED_EDGE('',*,*,#468,.F.);
#436=ORIENTED_EDGE('',*,*,#481,.F.);
#437=ORIENTED_EDGE('',*,*,#461,.F.);
#438=CARTESIAN_POINT('',(-10.5,0.0,0.0));
#439=DIRECTION('',(1.0,-0.0,0.0));
#440=DIRECTION('',(0.0,0.0,-1.0));
#441=SURFACE_STYLE_FILL_AREA(#490);
#442=ORIENTED_EDGE('',*,*,#471,.F.);
#443=ORIENTED_EDGE('',*,*,#473,.F.);
#444=CARTESIAN_POINT('',(16.0,0.0,0.0));
#445=DIRECTION('',(-1.0,0.0,-0.0));
#446=DIRECTION('',(0.0,0.0,1.0));
#447=SURFACE_STYLE_FILL_AREA(#491);
#448=ORIENTED_EDGE('',*,*,#478,.T.);
#449=ORIENTED_EDGE('',*,*,#482,.T.);
#450=ORIENTED_EDGE('',*,*,#474,.T.);
#451=CARTESIAN_POINT('',(10.5,9.25,0.0));
#452=DIRECTION('',(-1.0,0.0,0.0));
#453=DIRECTION('',(0.0,0.0,1.0));
#454=SURFACE_STYLE_FILL_AREA(#492);
#455=FILL_AREA_STYLE('',(#493));
#456=EDGE_CURVE('',#494,#494,#495,.T.);
#457=EDGE_CURVE('',#496,#496,#497,.F.);
#458=FILL_AREA_STYLE('',(#498));
#459=EDGE_CURVE('',#499,#499,#500,.T.);
#460=FILL_AREA_STYLE('',(#501));
#461=EDGE_CURVE('',#502,#503,#504,.F.);
#462=EDGE_CURVE('',#503,#502,#505,.T.);
#463=EDGE_CURVE('',#506,#506,#507,.T.);
#464=FILL_AREA_STYLE('',(#508));
#465=FILL_AREA_STYLE('',(#509));
#466=EDGE_CURVE('',#510,#511,#512,.T.);
#467=EDGE_CURVE('',#511,#513,#514,.T.);
#468=EDGE_CURVE('',#513,#515,#516,.T.);
#469=EDGE_CURVE('',#515,#510,#517,.F.);
#470=FILL_AREA_STYLE('',(#518));
#471=EDGE_CURVE('',#519,#519,#520,.F.);
#472=FILL_AREA_STYLE('',(#521));
#473=EDGE_CURVE('',#522,#522,#523,.T.);
#474=EDGE_CURVE('',#524,#524,#525,.T.);
#475=FILL_AREA_STYLE('',(#526));
#476=EDGE_CURVE('',#511,#527,#528,.T.);
#477=EDGE_CURVE('',#529,#510,#530,.T.);
#478=EDGE_CURVE('',#527,#529,#531,.F.);
#479=FILL_AREA_STYLE('',(#532));
#480=EDGE_CURVE('',#515,#502,#533,.T.);
#481=EDGE_CURVE('',#503,#513,#534,.T.);
#482=EDGE_CURVE('',#529,#527,#535,.T.);
#483=FILL_AREA_STYLE('',(#536));
#484=EDGE_CURVE('',#537,#537,#538,.T.);
#485=CARTESIAN_POINT('',(6.71299091524472,0.0,0.0));
#486=FILL_AREA_STYLE('',(#539));
#487=EDGE_CURVE('',#540,#540,#541,.F.);
#488=FILL_AREA_STYLE('',(#542));
#489=FILL_AREA_STYLE('',(#543));
#490=FILL_AREA_STYLE('',(#544));
#491=FILL_AREA_STYLE('',(#545));
#492=FILL_AREA_STYLE('',(#546));
#493=FILL_AREA_STYLE_COLOUR('',#547);
#494=VERTEX_POINT('',#548);
#495=CIRCLE('',#549,6.0);
#496=VERTEX_POINT('',#550);
#497=CIRCLE('',#551,5.5);
#498=FILL_AREA_STYLE_COLOUR('',#552);
#499=VERTEX_POINT('',#553);
#500=CIRCLE('',#554,3.4);
#501=FILL_AREA_STYLE_COLOUR('',#555);
#502=VERTEX_POINT('',#556);
#503=VERTEX_POINT('',#557);
#504=CIRCLE('',#558,12.0);
#505=LINE('',#559,#560);
#506=VERTEX_POINT('',#561);
#507=CIRCLE('',#562,6.0);
#508=FILL_AREA_STYLE_COLOUR('',#563);
#509=FILL_AREA_STYLE_COLOUR('',#564);
#510=VERTEX_POINT('',#565);
#511=VERTEX_POINT('',#566);
#512=CIRCLE('',#567,12.5);
#513=VERTEX_POINT('',#568);
#514=LINE('',#569,#570);
#515=VERTEX_POINT('',#571);
#516=CIRCLE('',#572,12.5);
#517=LINE('',#573,#574);
#518=FILL_AREA_STYLE_COLOUR('',#575);
#519=VERTEX_POINT('',#576);
#520=CIRCLE('',#577,5.5);
#521=FILL_AREA_STYLE_COLOUR('',#578);
#522=VERTEX_POINT('',#579);
#523=CIRCLE('',#580,6.0);
#524=VERTEX_POINT('',#581);
#525=CIRCLE('',#582,6.0);
#526=FILL_AREA_STYLE_COLOUR('',#583);
#527=VERTEX_POINT('',#584);
#528=B_SPLINE_CURVE_WITH_KNOTS('',3,(#585,#586,#587,#588),.UNSPECIFIED.,.F.,.F.,(4,4),(1.11741665035075E-06,0.000805472297136154),.UNSPECIFIED.);
#529=VERTEX_POINT('',#589);
#530=B_SPLINE_CURVE_WITH_KNOTS('',3,(#590,#591,#592,#593),.UNSPECIFIED.,.F.,.F.,(4,4),(0.0219414069272692,0.0227477961429416),.UNSPECIFIED.);
#531=CIRCLE('',#594,12.0);
#532=FILL_AREA_STYLE_COLOUR('',#595);
#533=B_SPLINE_CURVE_WITH_KNOTS('',3,(#596,#597,#598,#599),.UNSPECIFIED.,.F.,.F.,(4,4),(1.11741665035075E-06,0.000805472297136154),.UNSPECIFIED.);
#534=B_SPLINE_CURVE_WITH_KNOTS('',3,(#600,#601,#602,#603),.UNSPECIFIED.,.F.,.F.,(4,4),(0.0219414069272692,0.0227477961429416),.UNSPECIFIED.);
#535=LINE('',#604,#605);
#536=FILL_AREA_STYLE_COLOUR('',#606);
#537=VERTEX_POINT('',#607);
#538=CIRCLE('',#608,3.4);
#539=FILL_AREA_STYLE_COLOUR('',#609);
#540=VERTEX_POINT('',#610);
#541=CIRCLE('',#611,3.4);
#542=FILL_AREA_STYLE_COLOUR('',#612);
#543=FILL_AREA_STYLE_COLOUR('',#613);
#544=FILL_AREA_STYLE_COLOUR('',#614);
#545=FILL_AREA_STYLE_COLOUR('',#615);
#546=FILL_AREA_STYLE_COLOUR('',#616);
#547=COLOUR_RGB('',0.752941191196442,0.752941191196442,0.752941191196442);
#548=CARTESIAN_POINT('',(-16.0,0.0,-6.0));
#549=AXIS2_PLACEMENT_3D('',#617,#618,#619);
#550=CARTESIAN_POINT('',(-16.5,-1.34711147906209E-15,-5.5));
#551=AXIS2_PLACEMENT_3D('',#620,#621,#622);
#552=COLOUR_RGB('',0.752941191196442,0.752941191196442,0.752941191196442);
#553=CARTESIAN_POINT('',(-16.5,3.4,0.0));
#554=AXIS2_PLACEMENT_3D('',#623,#624,#625);
#555=COLOUR_RGB('',0.752941191196442,0.752941191196442,0.752941191196442);
#556=CARTESIAN_POINT('',(-10.5,9.3674969975976,7.5));
#557=CARTESIAN_POINT('',(-10.5,-9.3674969975976,7.5));
#558=AXIS2_PLACEMENT_3D('',#626,#627,#628);
#559=CARTESIAN_POINT('',(-10.5,9.25,7.5));
#560=VECTOR('',#629,1.0);
#561=CARTESIAN_POINT('',(-10.5,0.0,6.0));
#562=AXIS2_PLACEMENT_3D('',#630,#631,#632);
#563=COLOUR_RGB('',0.752941191196442,0.752941191196442,0.752941191196442);
#564=COLOUR_RGB('',0.752941191196442,0.752941191196442,0.752941191196442);
#565=CARTESIAN_POINT('',(10.0,10.0,7.5));
#566=CARTESIAN_POINT('',(10.0,-10.0,7.5));
#567=AXIS2_PLACEMENT_3D('',#633,#634,#635);
#568=CARTESIAN_POINT('',(-10.0,-10.0,7.5));
#569=CARTESIAN_POINT('',(0.0,-10.0,7.5));
#570=VECTOR('',#636,1.0);
#571=CARTESIAN_POINT('',(-10.0,10.0,7.5));
#572=AXIS2_PLACEMENT_3D('',#637,#638,#639);
#573=CARTESIAN_POINT('',(0.0,10.0,7.5));
#574=VECTOR('',#640,1.0);
#575=COLOUR_RGB('',0.752941191196442,0.752941191196442,0.752941191196442);
#576=CARTESIAN_POINT('',(16.5,-1.34711147906209E-15,5.5));
#577=AXIS2_PLACEMENT_3D('',#641,#642,#643);
#578=COLOUR_RGB('',0.752941191196442,0.752941191196442,0.752941191196442);
#579=CARTESIAN_POINT('',(16.0,0.0,6.0));
#580=AXIS2_PLACEMENT_3D('',#644,#645,#646);
#581=CARTESIAN_POINT('',(10.5,0.0,6.0));
#582=AXIS2_PLACEMENT_3D('',#647,#648,#649);
#583=COLOUR_RGB('',0.752941191196442,0.752941191196442,0.752941191196442);
#584=CARTESIAN_POINT('',(10.5,-9.3674969975976,7.5));
#585=CARTESIAN_POINT('',(10.0,-10.0,7.5));
#586=CARTESIAN_POINT('',(10.1679596373536,-9.790050453308,7.5));
#587=CARTESIAN_POINT('',(10.3346918173704,-9.57926095034447,7.5));
#588=CARTESIAN_POINT('',(10.5,-9.3674969975976,7.5));
#589=CARTESIAN_POINT('',(10.5,9.3674969975976,7.5));
#590=CARTESIAN_POINT('',(10.5,9.3674969975976,7.5));
#591=CARTESIAN_POINT('',(10.334701343844,9.5792487466914,7.5));
#592=CARTESIAN_POINT('',(10.1679688508769,9.79003893640392,7.5));
#593=CARTESIAN_POINT('',(10.0,10.0,7.5));
#594=AXIS2_PLACEMENT_3D('',#650,#651,#652);
#595=COLOUR_RGB('',0.752941191196442,0.752941191196442,0.752941191196442);
#596=CARTESIAN_POINT('',(-10.0,10.0,7.5));
#597=CARTESIAN_POINT('',(-10.1679596373536,9.790050453308,7.5));
#598=CARTESIAN_POINT('',(-10.3346918173704,9.57926095034447,7.5));
#599=CARTESIAN_POINT('',(-10.5,9.3674969975976,7.5));
#600=CARTESIAN_POINT('',(-10.5,-9.3674969975976,7.5));
#601=CARTESIAN_POINT('',(-10.334701343844,-9.5792487466914,7.5));
#602=CARTESIAN_POINT('',(-10.1679688508769,-9.79003893640391,7.5));
#603=CARTESIAN_POINT('',(-10.0,-10.0,7.5));
#604=CARTESIAN_POINT('',(10.5,9.25,7.5));
#605=VECTOR('',#653,1.0);
#606=COLOUR_RGB('',0.752941191196442,0.752941191196442,0.752941191196442);
#607=CARTESIAN_POINT('',(4.75,3.4,0.0));
#608=AXIS2_PLACEMENT_3D('',#654,#655,#656);
#609=COLOUR_RGB('',0.752941191196442,0.752941191196442,0.752941191196442);
#610=CARTESIAN_POINT('',(-1.5,3.4,-1.04094977927525E-15));
#611=AXIS2_PLACEMENT_3D('',#657,#658,#659);
#612=COLOUR_RGB('',0.752941191196442,0.752941191196442,0.752941191196442);
#613=COLOUR_RGB('',0.752941191196442,0.752941191196442,0.752941191196442);
#614=COLOUR_RGB('',0.752941191196442,0.752941191196442,0.752941191196442);
#615=COLOUR_RGB('',0.752941191196442,0.752941191196442,0.752941191196442);
#616=COLOUR_RGB('',0.752941191196442,0.752941191196442,0.752941191196442);
#617=CARTESIAN_POINT('',(-16.0,0.0,0.0));
#618=DIRECTION('',(1.0,0.0,0.0));
#619=DIRECTION('',(0.0,0.0,-1.0));
#620=CARTESIAN_POINT('',(-16.5,0.0,0.0));
#621=DIRECTION('',(1.0,0.0,0.0));
#622=DIRECTION('',(0.0,0.0,-1.0));
#623=CARTESIAN_POINT('',(-16.5,0.0,0.0));
#624=DIRECTION('',(-1.0,0.0,0.0));
#625=DIRECTION('',(0.0,1.0,0.0));
#626=CARTESIAN_POINT('',(-10.5,0.0,0.0));
#627=DIRECTION('',(1.0,0.0,0.0));
#628=DIRECTION('',(0.0,0.0,-1.0));
#629=DIRECTION('',(0.0,1.0,0.0));
#630=CARTESIAN_POINT('',(-10.5,0.0,0.0));
#631=DIRECTION('',(-1.0,0.0,0.0));
#632=DIRECTION('',(0.0,0.0,1.0));
#633=CARTESIAN_POINT('',(10.0,0.0,0.0));
#634=DIRECTION('',(-1.0,0.0,0.0));
#635=DIRECTION('',(0.0,0.0,1.0));
#636=DIRECTION('',(-1.0,0.0,0.0));
#637=CARTESIAN_POINT('',(-10.0,0.0,0.0));
#638=DIRECTION('',(1.0,0.0,0.0));
#639=DIRECTION('',(0.0,0.0,-1.0));
#640=DIRECTION('',(-1.0,0.0,0.0));
#641=CARTESIAN_POINT('',(16.5,0.0,0.0));
#642=DIRECTION('',(-1.0,0.0,0.0));
#643=DIRECTION('',(0.0,0.0,1.0));
#644=CARTESIAN_POINT('',(16.0,0.0,0.0));
#645=DIRECTION('',(-1.0,0.0,0.0));
#646=DIRECTION('',(0.0,0.0,1.0));
#647=CARTESIAN_POINT('',(10.5,0.0,0.0));
#648=DIRECTION('',(-1.0,0.0,0.0));
#649=DIRECTION('',(0.0,0.0,1.0));
#650=CARTESIAN_POINT('',(10.5,0.0,0.0));
#651=DIRECTION('',(-1.0,0.0,0.0));
#652=DIRECTION('',(0.0,0.0,1.0));
#653=DIRECTION('',(0.0,-1.0,0.0));
#654=CARTESIAN_POINT('',(4.75,0.0,0.0));
#655=DIRECTION('',(1.0,0.0,0.0));
#656=DIRECTION('',(0.0,1.0,0.0));
#657=CARTESIAN_POINT('',(-1.5,0.0,0.0));
#658=DIRECTION('',(1.0,0.0,0.0));
#659=DIRECTION('',(0.0,0.0,-1.0));
ENDSEC;
END-ISO-10303-21;
