ISO-10303-21;
HEADER;
FILE_DESCRIPTION(('STEP AP214'),'1');
FILE_NAME('AE04.01-axe bras.A.5.stp','2024-04-25T09:23:00',(' '),(' '),'Spatial InterOp 3D',' ',' ');
FILE_SCHEMA(('AUTOMOTIVE_DESIGN { 1 0 10303 214 1 1 1 1 }'));
ENDSEC;
DATA;
#1=MECHANICAL_DESIGN_GEOMETRIC_PRESENTATION_REPRESENTATION(' ',(#58,#59,#60,#61,#62,#63),#6);
#2=PRODUCT_DEFINITION_CONTEXT('',#64,'design');
#3=APPLICATION_PROTOCOL_DEFINITION('INTERNATIONAL STANDARD','automotive_design',1994,#64);
#4=PRODUCT_CATEGORY_RELATIONSHIP('NONE','NONE',#65,#66);
#5=SHAPE_DEFINITION_REPRESENTATION(#67,#68);
#6= (GEOMETRIC_REPRESENTATION_CONTEXT(3)GLOBAL_UNCERTAINTY_ASSIGNED_CONTEXT((#71))GLOBAL_UNIT_ASSIGNED_CONTEXT((#73,#74,#75))REPRESENTATION_CONTEXT('NONE','WORKSPACE'));
#7=PROPERTY_DEFINITION_REPRESENTATION(#77,#78);
#8=GENERAL_PROPERTY_ASSOCIATION('','',#79,#77);
#9=PROPERTY_DEFINITION_REPRESENTATION(#80,#81);
#10=GENERAL_PROPERTY_ASSOCIATION('','',#82,#80);
#11=PROPERTY_DEFINITION_REPRESENTATION(#83,#84);
#12=GENERAL_PROPERTY_ASSOCIATION('','',#85,#83);
#13=PROPERTY_DEFINITION_REPRESENTATION(#86,#87);
#14=GENERAL_PROPERTY_ASSOCIATION('','',#88,#86);
#15=PROPERTY_DEFINITION_REPRESENTATION(#89,#90);
#16=GENERAL_PROPERTY_ASSOCIATION('','',#91,#89);
#17=PROPERTY_DEFINITION_REPRESENTATION(#92,#93);
#18=GENERAL_PROPERTY_ASSOCIATION('','',#94,#92);
#19=PROPERTY_DEFINITION_REPRESENTATION(#95,#96);
#20=GENERAL_PROPERTY_ASSOCIATION('','',#97,#95);
#21=PROPERTY_DEFINITION_REPRESENTATION(#98,#99);
#22=GENERAL_PROPERTY_ASSOCIATION('','',#100,#98);
#23=PROPERTY_DEFINITION_REPRESENTATION(#101,#102);
#24=GENERAL_PROPERTY_ASSOCIATION('','',#103,#101);
#25=PROPERTY_DEFINITION_REPRESENTATION(#104,#105);
#26=GENERAL_PROPERTY_ASSOCIATION('','',#106,#104);
#27=PROPERTY_DEFINITION_REPRESENTATION(#107,#108);
#28=GENERAL_PROPERTY_ASSOCIATION('','',#109,#107);
#29=PROPERTY_DEFINITION_REPRESENTATION(#110,#111);
#30=GENERAL_PROPERTY_ASSOCIATION('','',#112,#110);
#31=PROPERTY_DEFINITION_REPRESENTATION(#113,#114);
#32=GENERAL_PROPERTY_ASSOCIATION('','',#115,#113);
#33=PROPERTY_DEFINITION_REPRESENTATION(#116,#117);
#34=GENERAL_PROPERTY_ASSOCIATION('','',#118,#116);
#35=PROPERTY_DEFINITION_REPRESENTATION(#119,#120);
#36=GENERAL_PROPERTY_ASSOCIATION('','',#121,#119);
#37=PROPERTY_DEFINITION_REPRESENTATION(#122,#123);
#38=GENERAL_PROPERTY_ASSOCIATION('','',#124,#122);
#39=PROPERTY_DEFINITION_REPRESENTATION(#125,#126);
#40=GENERAL_PROPERTY_ASSOCIATION('','',#127,#125);
#41=PROPERTY_DEFINITION_REPRESENTATION(#128,#129);
#42=GENERAL_PROPERTY_ASSOCIATION('','',#130,#128);
#43=PROPERTY_DEFINITION_REPRESENTATION(#131,#132);
#44=GENERAL_PROPERTY_ASSOCIATION('','',#133,#131);
#45=PROPERTY_DEFINITION_REPRESENTATION(#134,#135);
#46=GENERAL_PROPERTY_ASSOCIATION('','',#136,#134);
#47=PROPERTY_DEFINITION_REPRESENTATION(#137,#138);
#48=GENERAL_PROPERTY_ASSOCIATION('','',#139,#137);
#49=PROPERTY_DEFINITION_REPRESENTATION(#140,#141);
#50=GENERAL_PROPERTY_ASSOCIATION('','',#142,#140);
#51=PROPERTY_DEFINITION_REPRESENTATION(#143,#144);
#52=GENERAL_PROPERTY_ASSOCIATION('','',#145,#143);
#53=PROPERTY_DEFINITION_REPRESENTATION(#146,#147);
#54=GENERAL_PROPERTY_ASSOCIATION('','',#148,#146);
#58=STYLED_ITEM('',(#149),#150);
#59=STYLED_ITEM('',(#151),#152);
#60=STYLED_ITEM('',(#153),#154);
#61=STYLED_ITEM('',(#155),#156);
#62=STYLED_ITEM('',(#157),#158);
#63=STYLED_ITEM('',(#159),#160);
#64=APPLICATION_CONTEXT(' ');
#65=PRODUCT_CATEGORY('part','NONE');
#66=PRODUCT_RELATED_PRODUCT_CATEGORY('detail',' ',(#161));
#67=PRODUCT_DEFINITION_SHAPE('NONE','NONE',#162);
#68=ADVANCED_BREP_SHAPE_REPRESENTATION('axe bras',(#160,#163),#6);
#71=UNCERTAINTY_MEASURE_WITH_UNIT(LENGTH_MEASURE(0.001),#73,'','');
#73= (CONVERSION_BASED_UNIT('MILLIMETRE',#166)LENGTH_UNIT()NAMED_UNIT(#169));
#74= (NAMED_UNIT(#171)PLANE_ANGLE_UNIT()SI_UNIT($,.RADIAN.));
#75= (NAMED_UNIT(#171)SOLID_ANGLE_UNIT()SI_UNIT($,.STERADIAN.));
#77=PROPERTY_DEFINITION('PdmObjectId','',#162);
#78=REPRESENTATION('',(#177),#6);
#79=GENERAL_PROPERTY('','PdmObjectId','');
#80=PROPERTY_DEFINITION('Type de Production','',#162);
#81=REPRESENTATION('',(#178),#6);
#82=GENERAL_PROPERTY('','Type de Production','');
#83=PROPERTY_DEFINITION('Nom','',#162);
#84=REPRESENTATION('',(#179),#6);
#85=GENERAL_PROPERTY('','Nom','');
#86=PROPERTY_DEFINITION('Type de brut','',#162);
#87=REPRESENTATION('',(#180),#6);
#88=GENERAL_PROPERTY('','Type de brut','');
#89=PROPERTY_DEFINITION('Dimensions du brut','',#162);
#90=REPRESENTATION('',(#181),#6);
#91=GENERAL_PROPERTY('','Dimensions du brut','');
#92=PROPERTY_DEFINITION('Nom du brut','',#162);
#93=REPRESENTATION('',(#182),#6);
#94=GENERAL_PROPERTY('','Nom du brut','');
#95=PROPERTY_DEFINITION('D\X2\00E9\X0\signation du brut','',#162);
#96=REPRESENTATION('',(#183),#6);
#97=GENERAL_PROPERTY('','D\X2\00E9\X0\signation du brut','');
#98=PROPERTY_DEFINITION('R\X2\00E9\X0\f\X2\00E9\X0\rence du brut','',#162);
#99=REPRESENTATION('',(#184),#6);
#100=GENERAL_PROPERTY('','R\X2\00E9\X0\f\X2\00E9\X0\rence du brut','');
#101=PROPERTY_DEFINITION('R\X2\00E9\X0\vision majeure du brut','',#162);
#102=REPRESENTATION('',(#185),#6);
#103=GENERAL_PROPERTY('','R\X2\00E9\X0\vision majeure du brut','');
#104=PROPERTY_DEFINITION('D\X2\00E9\X0\signation de la r\X2\00E8\X0\gle de mise \X2\00E0\X0\ plat','',#162);
#105=REPRESENTATION('',(#186),#6);
#106=GENERAL_PROPERTY('','D\X2\00E9\X0\signation de la r\X2\00E8\X0\gle de mise \X2\00E0\X0\ plat','');
#107=PROPERTY_DEFINITION('R\X2\00E9\X0\f\X2\00E9\X0\rence de la r\X2\00E8\X0\gle de mise \X2\00E0\X0\ plat','',#162);
#108=REPRESENTATION('',(#187),#6);
#109=GENERAL_PROPERTY('','R\X2\00E9\X0\f\X2\00E9\X0\rence de la r\X2\00E8\X0\gle de mise \X2\00E0\X0\ plat','');
#110=PROPERTY_DEFINITION('Outil de pliage','',#162);
#111=REPRESENTATION('',(#188),#6);
#112=GENERAL_PROPERTY('','Outil de pliage','');
#113=PROPERTY_DEFINITION('D\X2\00E9\X0\signation du mat\X2\00E9\X0\riau','',#162);
#114=REPRESENTATION('',(#189),#6);
#115=GENERAL_PROPERTY('','D\X2\00E9\X0\signation du mat\X2\00E9\X0\riau','');
#116=PROPERTY_DEFINITION('Nom du mat\X2\00E9\X0\riau','',#162);
#117=REPRESENTATION('',(#190),#6);
#118=GENERAL_PROPERTY('','Nom du mat\X2\00E9\X0\riau','');
#119=PROPERTY_DEFINITION('BrutFinal','',#162);
#120=REPRESENTATION('',(#191),#6);
#121=GENERAL_PROPERTY('','BrutFinal','');
#122=PROPERTY_DEFINITION('BrutCylindrique','',#162);
#123=REPRESENTATION('',(#192),#6);
#124=GENERAL_PROPERTY('','BrutCylindrique','');
#125=PROPERTY_DEFINITION('Diam\X2\00E8\X0\treCylindreFormat\X2\00E9\X0\','',#162);
#126=REPRESENTATION('',(#193),#6);
#127=GENERAL_PROPERTY('','Diam\X2\00E8\X0\treCylindreFormat\X2\00E9\X0\','');
#128=PROPERTY_DEFINITION('LongueurCylindreFormat\X2\00E9\X0\','',#162);
#129=REPRESENTATION('',(#194),#6);
#130=GENERAL_PROPERTY('','LongueurCylindreFormat\X2\00E9\X0\','');
#131=PROPERTY_DEFINITION('BrutRectangulaire','',#162);
#132=REPRESENTATION('',(#195),#6);
#133=GENERAL_PROPERTY('','BrutRectangulaire','');
#134=PROPERTY_DEFINITION('TailleXBoiteFormat\X2\00E9\X0\','',#162);
#135=REPRESENTATION('',(#196),#6);
#136=GENERAL_PROPERTY('','TailleXBoiteFormat\X2\00E9\X0\','');
#137=PROPERTY_DEFINITION('TailleYBoiteFormat\X2\00E9\X0\','',#162);
#138=REPRESENTATION('',(#197),#6);
#139=GENERAL_PROPERTY('','TailleYBoiteFormat\X2\00E9\X0\','');
#140=PROPERTY_DEFINITION('TailleZBoiteFormat\X2\00E9\X0\','',#162);
#141=REPRESENTATION('',(#198),#6);
#142=GENERAL_PROPERTY('','TailleZBoiteFormat\X2\00E9\X0\','');
#143=PROPERTY_DEFINITION('CreationDate','',#162);
#144=REPRESENTATION('',(#199),#6);
#145=GENERAL_PROPERTY('','CreationDate','');
#146=PROPERTY_DEFINITION('Minor Revision','',#162);
#147=REPRESENTATION('',(#200),#6);
#148=GENERAL_PROPERTY('','Minor Revision','');
#149=PRESENTATION_STYLE_ASSIGNMENT((#201));
#150=ADVANCED_FACE('',(#202,#203),#204,.T.);
#151=PRESENTATION_STYLE_ASSIGNMENT((#205));
#152=ADVANCED_FACE('',(#206,#207),#208,.T.);
#153=PRESENTATION_STYLE_ASSIGNMENT((#209));
#154=ADVANCED_FACE('',(#210),#211,.T.);
#155=PRESENTATION_STYLE_ASSIGNMENT((#212));
#156=ADVANCED_FACE('',(#213,#214),#215,.T.);
#157=PRESENTATION_STYLE_ASSIGNMENT((#216));
#158=ADVANCED_FACE('',(#217),#218,.F.);
#159=PRESENTATION_STYLE_ASSIGNMENT((#219));
#160=MANIFOLD_SOLID_BREP('axe bras',#220);
#161=PRODUCT('axe bras','AE04.01','axe bras',(#221));
#162=PRODUCT_DEFINITION('','NONE',#222,#2);
#163=AXIS2_PLACEMENT_3D('',#223,#224,#225);
#166=LENGTH_MEASURE_WITH_UNIT(LENGTH_MEASURE(1.0),#226);
#169=DIMENSIONAL_EXPONENTS(1.0,0.0,0.0,0.0,0.0,0.0,0.0);
#171=DIMENSIONAL_EXPONENTS(0.0,0.0,0.0,0.0,0.0,0.0,0.0);
#177=DESCRIPTIVE_REPRESENTATION_ITEM('','19_84e58f43-a311-40f4-927f-0487543b9c74&2_37_13_16');
#178=DESCRIPTIVE_REPRESENTATION_ITEM('','Usinage');
#179=DESCRIPTIVE_REPRESENTATION_ITEM('','axe bras');
#180=DESCRIPTIVE_REPRESENTATION_ITEM('','Non classifi\X2\00E9\X0\');
#181=DESCRIPTIVE_REPRESENTATION_ITEM('','');
#182=DESCRIPTIVE_REPRESENTATION_ITEM('','-');
#183=DESCRIPTIVE_REPRESENTATION_ITEM('','-');
#184=DESCRIPTIVE_REPRESENTATION_ITEM('','');
#185=DESCRIPTIVE_REPRESENTATION_ITEM('','');
#186=DESCRIPTIVE_REPRESENTATION_ITEM('','Taleau pliage');
#187=DESCRIPTIVE_REPRESENTATION_ITEM('','');
#188=DESCRIPTIVE_REPRESENTATION_ITEM('','<non sp\X2\00E9\X0\cifi\X2\00E9\X0\>');
#189=DESCRIPTIVE_REPRESENTATION_ITEM('','Acier E335 EN 10278');
#190=DESCRIPTIVE_REPRESENTATION_ITEM('','Acier E335 EN 10278');
#191=DESCRIPTIVE_REPRESENTATION_ITEM('','-');
#192=DESCRIPTIVE_REPRESENTATION_ITEM('','\X2\00D8\X0\ 30,00 \X2\00D7\X0\ 145,00');
#193=DESCRIPTIVE_REPRESENTATION_ITEM('','30,00');
#194=DESCRIPTIVE_REPRESENTATION_ITEM('','145,00');
#195=DESCRIPTIVE_REPRESENTATION_ITEM('','145,00 \X2\00D7\X0\ 30,00 \X2\00D7\X0\ 30,00');
#196=DESCRIPTIVE_REPRESENTATION_ITEM('','145,00');
#197=DESCRIPTIVE_REPRESENTATION_ITEM('','30,00');
#198=DESCRIPTIVE_REPRESENTATION_ITEM('','30,00');
#199=DESCRIPTIVE_REPRESENTATION_ITEM('','05/11/2021 16:40:25');
#200=DESCRIPTIVE_REPRESENTATION_ITEM('','5');
#201=SURFACE_STYLE_USAGE(.BOTH.,#227);
#202=FACE_BOUND('',#228,.T.);
#203=FACE_OUTER_BOUND('',#229,.T.);
#204=CONICAL_SURFACE('',#230,12.5,0.523598775598299);
#205=SURFACE_STYLE_USAGE(.BOTH.,#231);
#206=FACE_OUTER_BOUND('',#232,.T.);
#207=FACE_BOUND('',#233,.T.);
#208=CONICAL_SURFACE('',#234,8.5,0.785398163397448);
#209=SURFACE_STYLE_USAGE(.BOTH.,#235);
#210=FACE_OUTER_BOUND('',#236,.T.);
#211=PLANE('',#237);
#212=SURFACE_STYLE_USAGE(.BOTH.,#238);
#213=FACE_OUTER_BOUND('',#239,.T.);
#214=FACE_OUTER_BOUND('',#240,.T.);
#215=CYLINDRICAL_SURFACE('',#241,12.5);
#216=SURFACE_STYLE_USAGE(.BOTH.,#242);
#217=FACE_OUTER_BOUND('',#243,.T.);
#218=PLANE('',#244);
#219=SURFACE_STYLE_USAGE(.BOTH.,#245);
#220=CLOSED_SHELL('',(#150,#152,#154,#156,#158));
#221=PRODUCT_CONTEXT('',#64,'mechanical');
#222=PRODUCT_DEFINITION_FORMATION_WITH_SPECIFIED_SOURCE('A','NONE',#161,.NOT_KNOWN.);
#223=CARTESIAN_POINT('',(0.0,0.0,0.0));
#224=DIRECTION('',(0.0,0.0,1.0));
#225=DIRECTION('',(1.0,0.0,0.0));
#226= (NAMED_UNIT(#169)LENGTH_UNIT()SI_UNIT(.MILLI.,.METRE.));
#227=SURFACE_SIDE_STYLE('',(#247));
#228=EDGE_LOOP('',(#248));
#229=EDGE_LOOP('',(#249));
#230=AXIS2_PLACEMENT_3D('',#250,#251,#252);
#231=SURFACE_SIDE_STYLE('',(#253));
#232=EDGE_LOOP('',(#254));
#233=EDGE_LOOP('',(#255));
#234=AXIS2_PLACEMENT_3D('',#256,#257,#258);
#235=SURFACE_SIDE_STYLE('',(#259));
#236=EDGE_LOOP('',(#260));
#237=AXIS2_PLACEMENT_3D('',#261,#262,#263);
#238=SURFACE_SIDE_STYLE('',(#264));
#239=EDGE_LOOP('',(#265));
#240=EDGE_LOOP('',(#266));
#241=AXIS2_PLACEMENT_3D('',#267,#268,#269);
#242=SURFACE_SIDE_STYLE('',(#270));
#243=EDGE_LOOP('',(#271));
#244=AXIS2_PLACEMENT_3D('',#272,#273,#274);
#245=SURFACE_SIDE_STYLE('',(#275));
#247=SURFACE_STYLE_FILL_AREA(#276);
#248=ORIENTED_EDGE('',*,*,#277,.F.);
#249=ORIENTED_EDGE('',*,*,#278,.F.);
#250=CARTESIAN_POINT('',(0.0,0.0,2.0));
#251=DIRECTION('',(-0.0,-0.0,1.0));
#252=DIRECTION('',(1.0,0.0,0.0));
#253=SURFACE_STYLE_FILL_AREA(#279);
#254=ORIENTED_EDGE('',*,*,#280,.F.);
#255=ORIENTED_EDGE('',*,*,#281,.F.);
#256=CARTESIAN_POINT('',(0.0,0.0,140.0));
#257=DIRECTION('',(-0.0,0.0,-1.0));
#258=DIRECTION('',(-1.0,0.0,0.0));
#259=SURFACE_STYLE_FILL_AREA(#282);
#260=ORIENTED_EDGE('',*,*,#281,.T.);
#261=CARTESIAN_POINT('',(0.0,0.0,140.0));
#262=DIRECTION('',(0.0,0.0,1.0));
#263=DIRECTION('',(1.0,0.0,0.0));
#264=SURFACE_STYLE_FILL_AREA(#283);
#265=ORIENTED_EDGE('',*,*,#280,.T.);
#266=ORIENTED_EDGE('',*,*,#278,.T.);
#267=CARTESIAN_POINT('',(0.0,0.0,0.0));
#268=DIRECTION('',(0.0,0.0,1.0));
#269=DIRECTION('',(1.0,0.0,0.0));
#270=SURFACE_STYLE_FILL_AREA(#284);
#271=ORIENTED_EDGE('',*,*,#277,.T.);
#272=CARTESIAN_POINT('',(0.0,0.0,0.0));
#273=DIRECTION('',(0.0,0.0,1.0));
#274=DIRECTION('',(1.0,0.0,0.0));
#275=SURFACE_STYLE_FILL_AREA(#285);
#276=FILL_AREA_STYLE('',(#286));
#277=EDGE_CURVE('',#287,#287,#288,.F.);
#278=EDGE_CURVE('',#289,#289,#290,.T.);
#279=FILL_AREA_STYLE('',(#291));
#280=EDGE_CURVE('',#292,#292,#293,.F.);
#281=EDGE_CURVE('',#294,#294,#295,.T.);
#282=FILL_AREA_STYLE('',(#296));
#283=FILL_AREA_STYLE('',(#297));
#284=FILL_AREA_STYLE('',(#298));
#285=FILL_AREA_STYLE('',(#299));
#286=FILL_AREA_STYLE_COLOUR('',#300);
#287=VERTEX_POINT('',#301);
#288=CIRCLE('',#302,11.3452994616207);
#289=VERTEX_POINT('',#303);
#290=CIRCLE('',#304,12.5);
#291=FILL_AREA_STYLE_COLOUR('',#305);
#292=VERTEX_POINT('',#306);
#293=CIRCLE('',#307,12.5);
#294=VERTEX_POINT('',#308);
#295=CIRCLE('',#309,8.5);
#296=FILL_AREA_STYLE_COLOUR('',#310);
#297=FILL_AREA_STYLE_COLOUR('',#311);
#298=FILL_AREA_STYLE_COLOUR('',#312);
#299=FILL_AREA_STYLE_COLOUR('',#313);
#300=COLOUR_RGB('',0.752941191196442,0.752941191196442,0.752941191196442);
#301=CARTESIAN_POINT('',(11.3452994616207,-2.77879693420841E-15,0.0));
#302=AXIS2_PLACEMENT_3D('',#314,#315,#316);
#303=CARTESIAN_POINT('',(12.5,0.0,2.0));
#304=AXIS2_PLACEMENT_3D('',#317,#318,#319);
#305=COLOUR_RGB('',0.752941191196442,0.752941191196442,0.752941191196442);
#306=CARTESIAN_POINT('',(12.5,-3.06161699786838E-15,136.0));
#307=AXIS2_PLACEMENT_3D('',#320,#321,#322);
#308=CARTESIAN_POINT('',(8.5,0.0,140.0));
#309=AXIS2_PLACEMENT_3D('',#323,#324,#325);
#310=COLOUR_RGB('',0.752941191196442,0.752941191196442,0.752941191196442);
#311=COLOUR_RGB('',0.752941191196442,0.752941191196442,0.752941191196442);
#312=COLOUR_RGB('',0.752941191196442,0.752941191196442,0.752941191196442);
#313=COLOUR_RGB('',0.752941191196442,0.752941191196442,0.752941191196442);
#314=CARTESIAN_POINT('',(0.0,0.0,0.0));
#315=DIRECTION('',(0.0,0.0,1.0));
#316=DIRECTION('',(1.0,0.0,0.0));
#317=CARTESIAN_POINT('',(0.0,0.0,2.0));
#318=DIRECTION('',(0.0,0.0,1.0));
#319=DIRECTION('',(1.0,0.0,0.0));
#320=CARTESIAN_POINT('',(0.0,0.0,136.0));
#321=DIRECTION('',(0.0,0.0,1.0));
#322=DIRECTION('',(1.0,0.0,0.0));
#323=CARTESIAN_POINT('',(0.0,0.0,140.0));
#324=DIRECTION('',(0.0,0.0,1.0));
#325=DIRECTION('',(1.0,0.0,0.0));
ENDSEC;
END-ISO-10303-21;
