ISO-10303-21;
HEADER;
FILE_DESCRIPTION(('STEP AP214'),'1');
FILE_NAME('rouleau fou plein.stp','2024-03-22T14:32:32',(' '),(' '),'Spatial InterOp 3D',' ',' ');
FILE_SCHEMA(('AUTOMOTIVE_DESIGN { 1 0 10303 214 1 1 1 1 }'));
ENDSEC;
DATA;
#1=MECHANICAL_DESIGN_GEOMETRIC_PRESENTATION_REPRESENTATION(' ',(#58,#59,#60,#61,#62,#63,#64,#65,#66,#67,#68,#69,#70,#71,#72,#73,#74,#75),#6);
#2=PRODUCT_DEFINITION_CONTEXT('',#76,'design');
#3=APPLICATION_PROTOCOL_DEFINITION('INTERNATIONAL STANDARD','automotive_design',1994,#76);
#4=PRODUCT_CATEGORY_RELATIONSHIP('NONE','NONE',#77,#78);
#5=SHAPE_DEFINITION_REPRESENTATION(#79,#80);
#6= (GEOMETRIC_REPRESENTATION_CONTEXT(3)GLOBAL_UNCERTAINTY_ASSIGNED_CONTEXT((#83))GLOBAL_UNIT_ASSIGNED_CONTEXT((#85,#86,#87))REPRESENTATION_CONTEXT('NONE','WORKSPACE'));
#7=PROPERTY_DEFINITION_REPRESENTATION(#89,#90);
#8=GENERAL_PROPERTY_ASSOCIATION('','',#91,#89);
#9=PROPERTY_DEFINITION_REPRESENTATION(#92,#93);
#10=GENERAL_PROPERTY_ASSOCIATION('','',#94,#92);
#11=PROPERTY_DEFINITION_REPRESENTATION(#95,#96);
#12=GENERAL_PROPERTY_ASSOCIATION('','',#97,#95);
#13=PROPERTY_DEFINITION_REPRESENTATION(#98,#99);
#14=GENERAL_PROPERTY_ASSOCIATION('','',#100,#98);
#15=PROPERTY_DEFINITION_REPRESENTATION(#101,#102);
#16=GENERAL_PROPERTY_ASSOCIATION('','',#103,#101);
#17=PROPERTY_DEFINITION_REPRESENTATION(#104,#105);
#18=GENERAL_PROPERTY_ASSOCIATION('','',#106,#104);
#19=PROPERTY_DEFINITION_REPRESENTATION(#107,#108);
#20=GENERAL_PROPERTY_ASSOCIATION('','',#109,#107);
#21=PROPERTY_DEFINITION_REPRESENTATION(#110,#111);
#22=GENERAL_PROPERTY_ASSOCIATION('','',#112,#110);
#23=PROPERTY_DEFINITION_REPRESENTATION(#113,#114);
#24=GENERAL_PROPERTY_ASSOCIATION('','',#115,#113);
#25=PROPERTY_DEFINITION_REPRESENTATION(#116,#117);
#26=GENERAL_PROPERTY_ASSOCIATION('','',#118,#116);
#27=PROPERTY_DEFINITION_REPRESENTATION(#119,#120);
#28=GENERAL_PROPERTY_ASSOCIATION('','',#121,#119);
#29=PROPERTY_DEFINITION_REPRESENTATION(#122,#123);
#30=GENERAL_PROPERTY_ASSOCIATION('','',#124,#122);
#31=PROPERTY_DEFINITION_REPRESENTATION(#125,#126);
#32=GENERAL_PROPERTY_ASSOCIATION('','',#127,#125);
#33=PROPERTY_DEFINITION_REPRESENTATION(#128,#129);
#34=GENERAL_PROPERTY_ASSOCIATION('','',#130,#128);
#35=PROPERTY_DEFINITION_REPRESENTATION(#131,#132);
#36=GENERAL_PROPERTY_ASSOCIATION('','',#133,#131);
#37=PROPERTY_DEFINITION_REPRESENTATION(#134,#135);
#38=GENERAL_PROPERTY_ASSOCIATION('','',#136,#134);
#39=PROPERTY_DEFINITION_REPRESENTATION(#137,#138);
#40=GENERAL_PROPERTY_ASSOCIATION('','',#139,#137);
#41=PROPERTY_DEFINITION_REPRESENTATION(#140,#141);
#42=GENERAL_PROPERTY_ASSOCIATION('','',#142,#140);
#43=PROPERTY_DEFINITION_REPRESENTATION(#143,#144);
#44=GENERAL_PROPERTY_ASSOCIATION('','',#145,#143);
#45=PROPERTY_DEFINITION_REPRESENTATION(#146,#147);
#46=GENERAL_PROPERTY_ASSOCIATION('','',#148,#146);
#47=PROPERTY_DEFINITION_REPRESENTATION(#149,#150);
#48=GENERAL_PROPERTY_ASSOCIATION('','',#151,#149);
#49=PROPERTY_DEFINITION_REPRESENTATION(#152,#153);
#50=GENERAL_PROPERTY_ASSOCIATION('','',#154,#152);
#51=PROPERTY_DEFINITION_REPRESENTATION(#155,#156);
#52=GENERAL_PROPERTY_ASSOCIATION('','',#157,#155);
#53=PROPERTY_DEFINITION_REPRESENTATION(#158,#159);
#54=GENERAL_PROPERTY_ASSOCIATION('','',#160,#158);
#58=STYLED_ITEM('',(#161),#162);
#59=STYLED_ITEM('',(#163),#164);
#60=STYLED_ITEM('',(#165),#166);
#61=STYLED_ITEM('',(#167),#168);
#62=STYLED_ITEM('',(#169),#170);
#63=STYLED_ITEM('',(#171),#172);
#64=STYLED_ITEM('',(#173),#174);
#65=STYLED_ITEM('',(#175),#176);
#66=STYLED_ITEM('',(#177),#178);
#67=STYLED_ITEM('',(#179),#180);
#68=STYLED_ITEM('',(#181),#182);
#69=STYLED_ITEM('',(#183),#184);
#70=STYLED_ITEM('',(#185),#186);
#71=STYLED_ITEM('',(#187),#188);
#72=STYLED_ITEM('',(#189),#190);
#73=STYLED_ITEM('',(#191),#192);
#74=STYLED_ITEM('',(#193),#194);
#75=STYLED_ITEM('',(#195),#196);
#76=APPLICATION_CONTEXT(' ');
#77=PRODUCT_CATEGORY('part','NONE');
#78=PRODUCT_RELATED_PRODUCT_CATEGORY('detail',' ',(#197));
#79=PRODUCT_DEFINITION_SHAPE('NONE','NONE',#198);
#80=ADVANCED_BREP_SHAPE_REPRESENTATION('rouleau fou plein',(#196,#199),#6);
#83=UNCERTAINTY_MEASURE_WITH_UNIT(LENGTH_MEASURE(0.001),#85,'','');
#85= (CONVERSION_BASED_UNIT('MILLIMETRE',#202)LENGTH_UNIT()NAMED_UNIT(#205));
#86= (NAMED_UNIT(#207)PLANE_ANGLE_UNIT()SI_UNIT($,.RADIAN.));
#87= (NAMED_UNIT(#207)SOLID_ANGLE_UNIT()SI_UNIT($,.STERADIAN.));
#89=PROPERTY_DEFINITION('PdmObjectId','',#198);
#90=REPRESENTATION('',(#213),#6);
#91=GENERAL_PROPERTY('','PdmObjectId','');
#92=PROPERTY_DEFINITION('Type de Production','',#198);
#93=REPRESENTATION('',(#214),#6);
#94=GENERAL_PROPERTY('','Type de Production','');
#95=PROPERTY_DEFINITION('Nom','',#198);
#96=REPRESENTATION('',(#215),#6);
#97=GENERAL_PROPERTY('','Nom','');
#98=PROPERTY_DEFINITION('Type de brut','',#198);
#99=REPRESENTATION('',(#216),#6);
#100=GENERAL_PROPERTY('','Type de brut','');
#101=PROPERTY_DEFINITION('Dimensions du brut','',#198);
#102=REPRESENTATION('',(#217),#6);
#103=GENERAL_PROPERTY('','Dimensions du brut','');
#104=PROPERTY_DEFINITION('Nom du brut','',#198);
#105=REPRESENTATION('',(#218),#6);
#106=GENERAL_PROPERTY('','Nom du brut','');
#107=PROPERTY_DEFINITION('D\X2\00E9\X0\signation du brut','',#198);
#108=REPRESENTATION('',(#219),#6);
#109=GENERAL_PROPERTY('','D\X2\00E9\X0\signation du brut','');
#110=PROPERTY_DEFINITION('R\X2\00E9\X0\f\X2\00E9\X0\rence du brut','',#198);
#111=REPRESENTATION('',(#220),#6);
#112=GENERAL_PROPERTY('','R\X2\00E9\X0\f\X2\00E9\X0\rence du brut','');
#113=PROPERTY_DEFINITION('R\X2\00E9\X0\vision majeure du brut','',#198);
#114=REPRESENTATION('',(#221),#6);
#115=GENERAL_PROPERTY('','R\X2\00E9\X0\vision majeure du brut','');
#116=PROPERTY_DEFINITION('D\X2\00E9\X0\signation de la r\X2\00E8\X0\gle de mise \X2\00E0\X0\ plat','',#198);
#117=REPRESENTATION('',(#222),#6);
#118=GENERAL_PROPERTY('','D\X2\00E9\X0\signation de la r\X2\00E8\X0\gle de mise \X2\00E0\X0\ plat','');
#119=PROPERTY_DEFINITION('R\X2\00E9\X0\f\X2\00E9\X0\rence de la r\X2\00E8\X0\gle de mise \X2\00E0\X0\ plat','',#198);
#120=REPRESENTATION('',(#223),#6);
#121=GENERAL_PROPERTY('','R\X2\00E9\X0\f\X2\00E9\X0\rence de la r\X2\00E8\X0\gle de mise \X2\00E0\X0\ plat','');
#122=PROPERTY_DEFINITION('Outil de pliage','',#198);
#123=REPRESENTATION('',(#224),#6);
#124=GENERAL_PROPERTY('','Outil de pliage','');
#125=PROPERTY_DEFINITION('D\X2\00E9\X0\signation du mat\X2\00E9\X0\riau','',#198);
#126=REPRESENTATION('',(#225),#6);
#127=GENERAL_PROPERTY('','D\X2\00E9\X0\signation du mat\X2\00E9\X0\riau','');
#128=PROPERTY_DEFINITION('Nom du mat\X2\00E9\X0\riau','',#198);
#129=REPRESENTATION('',(#226),#6);
#130=GENERAL_PROPERTY('','Nom du mat\X2\00E9\X0\riau','');
#131=PROPERTY_DEFINITION('BrutFinal','',#198);
#132=REPRESENTATION('',(#227),#6);
#133=GENERAL_PROPERTY('','BrutFinal','');
#134=PROPERTY_DEFINITION('BrutCylindrique','',#198);
#135=REPRESENTATION('',(#228),#6);
#136=GENERAL_PROPERTY('','BrutCylindrique','');
#137=PROPERTY_DEFINITION('Diam\X2\00E8\X0\treCylindreFormat\X2\00E9\X0\','',#198);
#138=REPRESENTATION('',(#229),#6);
#139=GENERAL_PROPERTY('','Diam\X2\00E8\X0\treCylindreFormat\X2\00E9\X0\','');
#140=PROPERTY_DEFINITION('LongueurCylindreFormat\X2\00E9\X0\','',#198);
#141=REPRESENTATION('',(#230),#6);
#142=GENERAL_PROPERTY('','LongueurCylindreFormat\X2\00E9\X0\','');
#143=PROPERTY_DEFINITION('BrutRectangulaire','',#198);
#144=REPRESENTATION('',(#231),#6);
#145=GENERAL_PROPERTY('','BrutRectangulaire','');
#146=PROPERTY_DEFINITION('TailleXBoiteFormat\X2\00E9\X0\','',#198);
#147=REPRESENTATION('',(#232),#6);
#148=GENERAL_PROPERTY('','TailleXBoiteFormat\X2\00E9\X0\','');
#149=PROPERTY_DEFINITION('TailleYBoiteFormat\X2\00E9\X0\','',#198);
#150=REPRESENTATION('',(#233),#6);
#151=GENERAL_PROPERTY('','TailleYBoiteFormat\X2\00E9\X0\','');
#152=PROPERTY_DEFINITION('TailleZBoiteFormat\X2\00E9\X0\','',#198);
#153=REPRESENTATION('',(#234),#6);
#154=GENERAL_PROPERTY('','TailleZBoiteFormat\X2\00E9\X0\','');
#155=PROPERTY_DEFINITION('CreationDate','',#198);
#156=REPRESENTATION('',(#235),#6);
#157=GENERAL_PROPERTY('','CreationDate','');
#158=PROPERTY_DEFINITION('Minor Revision','',#198);
#159=REPRESENTATION('',(#236),#6);
#160=GENERAL_PROPERTY('','Minor Revision','');
#161=PRESENTATION_STYLE_ASSIGNMENT((#237));
#162=ADVANCED_FACE('',(#238,#239),#240,.T.);
#163=PRESENTATION_STYLE_ASSIGNMENT((#241));
#164=ADVANCED_FACE('',(#242,#243),#244,.T.);
#165=PRESENTATION_STYLE_ASSIGNMENT((#245));
#166=ADVANCED_FACE('',(#246,#247),#248,.F.);
#167=PRESENTATION_STYLE_ASSIGNMENT((#249));
#168=ADVANCED_FACE('',(#250,#251),#252,.F.);
#169=PRESENTATION_STYLE_ASSIGNMENT((#253));
#170=ADVANCED_FACE('',(#254,#255),#256,.F.);
#171=PRESENTATION_STYLE_ASSIGNMENT((#257));
#172=ADVANCED_FACE('',(#258,#259),#260,.T.);
#173=PRESENTATION_STYLE_ASSIGNMENT((#261));
#174=ADVANCED_FACE('',(#262,#263),#264,.T.);
#175=PRESENTATION_STYLE_ASSIGNMENT((#265));
#176=ADVANCED_FACE('',(#266,#267),#268,.T.);
#177=PRESENTATION_STYLE_ASSIGNMENT((#269));
#178=ADVANCED_FACE('',(#270,#271),#272,.T.);
#179=PRESENTATION_STYLE_ASSIGNMENT((#273));
#180=ADVANCED_FACE('',(#274,#275),#276,.T.);
#181=PRESENTATION_STYLE_ASSIGNMENT((#277));
#182=ADVANCED_FACE('',(#278,#279),#280,.T.);
#183=PRESENTATION_STYLE_ASSIGNMENT((#281));
#184=ADVANCED_FACE('',(#282,#283),#284,.T.);
#185=PRESENTATION_STYLE_ASSIGNMENT((#285));
#186=ADVANCED_FACE('',(#286,#287),#288,.F.);
#187=PRESENTATION_STYLE_ASSIGNMENT((#289));
#188=ADVANCED_FACE('',(#290,#291),#292,.T.);
#189=PRESENTATION_STYLE_ASSIGNMENT((#293));
#190=ADVANCED_FACE('',(#294,#295),#296,.T.);
#191=PRESENTATION_STYLE_ASSIGNMENT((#297));
#192=ADVANCED_FACE('',(#298),#299,.F.);
#193=PRESENTATION_STYLE_ASSIGNMENT((#300));
#194=ADVANCED_FACE('',(#301),#302,.F.);
#195=PRESENTATION_STYLE_ASSIGNMENT((#303));
#196=MANIFOLD_SOLID_BREP('rouleau fou plein',#304);
#197=PRODUCT('rouleau fou plein','FAA120.01','rouleau fou plein',(#305));
#198=PRODUCT_DEFINITION('','NONE',#306,#2);
#199=AXIS2_PLACEMENT_3D('',#307,#308,#309);
#202=LENGTH_MEASURE_WITH_UNIT(LENGTH_MEASURE(1.0),#310);
#205=DIMENSIONAL_EXPONENTS(1.0,0.0,0.0,0.0,0.0,0.0,0.0);
#207=DIMENSIONAL_EXPONENTS(0.0,0.0,0.0,0.0,0.0,0.0,0.0);
#213=DESCRIPTIVE_REPRESENTATION_ITEM('','19_54ed7f9a-fe54-4107-ad79-4ad21b6fb261&2_3_13_16');
#214=DESCRIPTIVE_REPRESENTATION_ITEM('','Usinage');
#215=DESCRIPTIVE_REPRESENTATION_ITEM('','rouleau fou plein');
#216=DESCRIPTIVE_REPRESENTATION_ITEM('','Non classifi\X2\00E9\X0\');
#217=DESCRIPTIVE_REPRESENTATION_ITEM('','');
#218=DESCRIPTIVE_REPRESENTATION_ITEM('','-');
#219=DESCRIPTIVE_REPRESENTATION_ITEM('','-');
#220=DESCRIPTIVE_REPRESENTATION_ITEM('','');
#221=DESCRIPTIVE_REPRESENTATION_ITEM('','');
#222=DESCRIPTIVE_REPRESENTATION_ITEM('','Taleau pliage');
#223=DESCRIPTIVE_REPRESENTATION_ITEM('','');
#224=DESCRIPTIVE_REPRESENTATION_ITEM('','<non sp\X2\00E9\X0\cifi\X2\00E9\X0\>');
#225=DESCRIPTIVE_REPRESENTATION_ITEM('','Aluminium AW-2017 EN 573');
#226=DESCRIPTIVE_REPRESENTATION_ITEM('','Aluminium AW-2017 EN 573');
#227=DESCRIPTIVE_REPRESENTATION_ITEM('','-');
#228=DESCRIPTIVE_REPRESENTATION_ITEM('','\X2\00D8\X0\ 2174,00 \X2\00D7\X0\ 65,00');
#229=DESCRIPTIVE_REPRESENTATION_ITEM('','2174,00');
#230=DESCRIPTIVE_REPRESENTATION_ITEM('','65,00');
#231=DESCRIPTIVE_REPRESENTATION_ITEM('','1134,00 \X2\00D7\X0\ 65,00 \X2\00D7\X0\ 65,00');
#232=DESCRIPTIVE_REPRESENTATION_ITEM('','1134,00');
#233=DESCRIPTIVE_REPRESENTATION_ITEM('','65,00');
#234=DESCRIPTIVE_REPRESENTATION_ITEM('','65,00');
#235=DESCRIPTIVE_REPRESENTATION_ITEM('','15/06/2023 12:56:29');
#236=DESCRIPTIVE_REPRESENTATION_ITEM('','2');
#237=SURFACE_STYLE_USAGE(.BOTH.,#311);
#238=FACE_BOUND('',#312,.T.);
#239=FACE_OUTER_BOUND('',#313,.T.);
#240=CONICAL_SURFACE('',#314,12.5,0.785398163397448);
#241=SURFACE_STYLE_USAGE(.BOTH.,#315);
#242=FACE_OUTER_BOUND('',#316,.T.);
#243=FACE_OUTER_BOUND('',#317,.T.);
#244=CYLINDRICAL_SURFACE('',#318,12.5);
#245=SURFACE_STYLE_USAGE(.BOTH.,#319);
#246=FACE_BOUND('',#320,.T.);
#247=FACE_OUTER_BOUND('',#321,.T.);
#248=PLANE('',#322);
#249=SURFACE_STYLE_USAGE(.BOTH.,#323);
#250=FACE_BOUND('',#324,.T.);
#251=FACE_OUTER_BOUND('',#325,.T.);
#252=CONICAL_SURFACE('',#326,28.5,0.956133374872732);
#253=SURFACE_STYLE_USAGE(.BOTH.,#327);
#254=FACE_BOUND('',#328,.T.);
#255=FACE_OUTER_BOUND('',#329,.T.);
#256=PLANE('',#330);
#257=SURFACE_STYLE_USAGE(.BOTH.,#331);
#258=FACE_BOUND('',#332,.T.);
#259=FACE_OUTER_BOUND('',#333,.T.);
#260=CONICAL_SURFACE('',#334,30.0,0.785398163397448);
#261=SURFACE_STYLE_USAGE(.BOTH.,#335);
#262=FACE_OUTER_BOUND('',#336,.T.);
#263=FACE_OUTER_BOUND('',#337,.T.);
#264=CYLINDRICAL_SURFACE('',#338,30.0);
#265=SURFACE_STYLE_USAGE(.BOTH.,#339);
#266=FACE_OUTER_BOUND('',#340,.T.);
#267=FACE_BOUND('',#341,.T.);
#268=CONICAL_SURFACE('',#342,20.0,1.23918376891597);
#269=SURFACE_STYLE_USAGE(.BOTH.,#343);
#270=FACE_OUTER_BOUND('',#344,.T.);
#271=FACE_OUTER_BOUND('',#345,.T.);
#272=CYLINDRICAL_SURFACE('',#346,20.0);
#273=SURFACE_STYLE_USAGE(.BOTH.,#347);
#274=FACE_BOUND('',#348,.T.);
#275=FACE_OUTER_BOUND('',#349,.T.);
#276=CONICAL_SURFACE('',#350,30.0,1.23918376891597);
#277=SURFACE_STYLE_USAGE(.BOTH.,#351);
#278=FACE_OUTER_BOUND('',#352,.T.);
#279=FACE_OUTER_BOUND('',#353,.T.);
#280=CYLINDRICAL_SURFACE('',#354,30.0);
#281=SURFACE_STYLE_USAGE(.BOTH.,#355);
#282=FACE_OUTER_BOUND('',#356,.T.);
#283=FACE_BOUND('',#357,.T.);
#284=CONICAL_SURFACE('',#358,29.0,0.785398163397366);
#285=SURFACE_STYLE_USAGE(.BOTH.,#359);
#286=FACE_OUTER_BOUND('',#360,.T.);
#287=FACE_BOUND('',#361,.T.);
#288=PLANE('',#362);
#289=SURFACE_STYLE_USAGE(.BOTH.,#363);
#290=FACE_OUTER_BOUND('',#364,.T.);
#291=FACE_OUTER_BOUND('',#365,.T.);
#292=CYLINDRICAL_SURFACE('',#366,12.5);
#293=SURFACE_STYLE_USAGE(.BOTH.,#367);
#294=FACE_OUTER_BOUND('',#368,.T.);
#295=FACE_BOUND('',#369,.T.);
#296=CONICAL_SURFACE('',#370,11.5000000000002,0.78539816339739);
#297=SURFACE_STYLE_USAGE(.BOTH.,#371);
#298=FACE_OUTER_BOUND('',#372,.T.);
#299=PLANE('',#373);
#300=SURFACE_STYLE_USAGE(.BOTH.,#374);
#301=FACE_OUTER_BOUND('',#375,.T.);
#302=PLANE('',#376);
#303=SURFACE_STYLE_USAGE(.BOTH.,#377);
#304=CLOSED_SHELL('',(#162,#164,#166,#168,#170,#172,#174,#176,#178,#180,#182,#184,#186,#188,#190,#192,#194));
#305=PRODUCT_CONTEXT('',#76,'mechanical');
#306=PRODUCT_DEFINITION_FORMATION_WITH_SPECIFIED_SOURCE('A','NONE',#197,.NOT_KNOWN.);
#307=CARTESIAN_POINT('',(0.0,0.0,0.0));
#308=DIRECTION('',(0.0,0.0,1.0));
#309=DIRECTION('',(1.0,0.0,0.0));
#310= (NAMED_UNIT(#205)LENGTH_UNIT()SI_UNIT(.MILLI.,.METRE.));
#311=SURFACE_SIDE_STYLE('',(#379));
#312=EDGE_LOOP('',(#380));
#313=EDGE_LOOP('',(#381));
#314=AXIS2_PLACEMENT_3D('',#382,#383,#384);
#315=SURFACE_SIDE_STYLE('',(#385));
#316=EDGE_LOOP('',(#386));
#317=EDGE_LOOP('',(#387));
#318=AXIS2_PLACEMENT_3D('',#388,#389,#390);
#319=SURFACE_SIDE_STYLE('',(#391));
#320=EDGE_LOOP('',(#392));
#321=EDGE_LOOP('',(#393));
#322=AXIS2_PLACEMENT_3D('',#394,#395,#396);
#323=SURFACE_SIDE_STYLE('',(#397));
#324=EDGE_LOOP('',(#398));
#325=EDGE_LOOP('',(#399));
#326=AXIS2_PLACEMENT_3D('',#400,#401,#402);
#327=SURFACE_SIDE_STYLE('',(#403));
#328=EDGE_LOOP('',(#404));
#329=EDGE_LOOP('',(#405));
#330=AXIS2_PLACEMENT_3D('',#406,#407,#408);
#331=SURFACE_SIDE_STYLE('',(#409));
#332=EDGE_LOOP('',(#410));
#333=EDGE_LOOP('',(#411));
#334=AXIS2_PLACEMENT_3D('',#412,#413,#414);
#335=SURFACE_SIDE_STYLE('',(#415));
#336=EDGE_LOOP('',(#416));
#337=EDGE_LOOP('',(#417));
#338=AXIS2_PLACEMENT_3D('',#418,#419,#420);
#339=SURFACE_SIDE_STYLE('',(#421));
#340=EDGE_LOOP('',(#422));
#341=EDGE_LOOP('',(#423));
#342=AXIS2_PLACEMENT_3D('',#424,#425,#426);
#343=SURFACE_SIDE_STYLE('',(#427));
#344=EDGE_LOOP('',(#428));
#345=EDGE_LOOP('',(#429));
#346=AXIS2_PLACEMENT_3D('',#430,#431,#432);
#347=SURFACE_SIDE_STYLE('',(#433));
#348=EDGE_LOOP('',(#434));
#349=EDGE_LOOP('',(#435));
#350=AXIS2_PLACEMENT_3D('',#436,#437,#438);
#351=SURFACE_SIDE_STYLE('',(#439));
#352=EDGE_LOOP('',(#440));
#353=EDGE_LOOP('',(#441));
#354=AXIS2_PLACEMENT_3D('',#442,#443,#444);
#355=SURFACE_SIDE_STYLE('',(#445));
#356=EDGE_LOOP('',(#446));
#357=EDGE_LOOP('',(#447));
#358=AXIS2_PLACEMENT_3D('',#448,#449,#450);
#359=SURFACE_SIDE_STYLE('',(#451));
#360=EDGE_LOOP('',(#452));
#361=EDGE_LOOP('',(#453));
#362=AXIS2_PLACEMENT_3D('',#454,#455,#456);
#363=SURFACE_SIDE_STYLE('',(#457));
#364=EDGE_LOOP('',(#458));
#365=EDGE_LOOP('',(#459));
#366=AXIS2_PLACEMENT_3D('',#460,#461,#462);
#367=SURFACE_SIDE_STYLE('',(#463));
#368=EDGE_LOOP('',(#464));
#369=EDGE_LOOP('',(#465));
#370=AXIS2_PLACEMENT_3D('',#466,#467,#468);
#371=SURFACE_SIDE_STYLE('',(#469));
#372=EDGE_LOOP('',(#470));
#373=AXIS2_PLACEMENT_3D('',#471,#472,#473);
#374=SURFACE_SIDE_STYLE('',(#474));
#375=EDGE_LOOP('',(#475));
#376=AXIS2_PLACEMENT_3D('',#476,#477,#478);
#377=SURFACE_SIDE_STYLE('',(#479));
#379=SURFACE_STYLE_FILL_AREA(#480);
#380=ORIENTED_EDGE('',*,*,#481,.F.);
#381=ORIENTED_EDGE('',*,*,#482,.T.);
#382=CARTESIAN_POINT('',(-44.0,0.0,0.0));
#383=DIRECTION('',(1.0,-0.0,0.0));
#384=DIRECTION('',(0.0,0.0,-1.0));
#385=SURFACE_STYLE_FILL_AREA(#483);
#386=ORIENTED_EDGE('',*,*,#482,.F.);
#387=ORIENTED_EDGE('',*,*,#484,.T.);
#388=CARTESIAN_POINT('',(0.0,0.0,0.0));
#389=DIRECTION('',(-1.0,0.0,0.0));
#390=DIRECTION('',(0.0,0.0,1.0));
#391=SURFACE_STYLE_FILL_AREA(#485);
#392=ORIENTED_EDGE('',*,*,#484,.F.);
#393=ORIENTED_EDGE('',*,*,#486,.T.);
#394=CARTESIAN_POINT('',(-10.0,16.25,0.0));
#395=DIRECTION('',(1.0,0.0,0.0));
#396=DIRECTION('',(0.0,0.0,-1.0));
#397=SURFACE_STYLE_FILL_AREA(#487);
#398=ORIENTED_EDGE('',*,*,#486,.F.);
#399=ORIENTED_EDGE('',*,*,#488,.T.);
#400=CARTESIAN_POINT('',(-16.0,0.0,0.0));
#401=DIRECTION('',(-1.0,0.0,-0.0));
#402=DIRECTION('',(0.0,0.0,1.0));
#403=SURFACE_STYLE_FILL_AREA(#489);
#404=ORIENTED_EDGE('',*,*,#488,.F.);
#405=ORIENTED_EDGE('',*,*,#490,.T.);
#406=CARTESIAN_POINT('',(-16.0,28.75,0.0));
#407=DIRECTION('',(1.0,0.0,0.0));
#408=DIRECTION('',(0.0,0.0,-1.0));
#409=SURFACE_STYLE_FILL_AREA(#491);
#410=ORIENTED_EDGE('',*,*,#490,.F.);
#411=ORIENTED_EDGE('',*,*,#492,.T.);
#412=CARTESIAN_POINT('',(-15.0,0.0,0.0));
#413=DIRECTION('',(1.0,-0.0,0.0));
#414=DIRECTION('',(0.0,0.0,-1.0));
#415=SURFACE_STYLE_FILL_AREA(#493);
#416=ORIENTED_EDGE('',*,*,#492,.F.);
#417=ORIENTED_EDGE('',*,*,#494,.T.);
#418=CARTESIAN_POINT('',(0.0,0.0,0.0));
#419=DIRECTION('',(-1.0,0.0,0.0));
#420=DIRECTION('',(0.0,0.0,1.0));
#421=SURFACE_STYLE_FILL_AREA(#495);
#422=ORIENTED_EDGE('',*,*,#494,.F.);
#423=ORIENTED_EDGE('',*,*,#496,.T.);
#424=CARTESIAN_POINT('',(1022.4432761329,0.0,0.0));
#425=DIRECTION('',(-1.0,0.0,-0.0));
#426=DIRECTION('',(0.0,0.0,1.0));
#427=SURFACE_STYLE_FILL_AREA(#497);
#428=ORIENTED_EDGE('',*,*,#496,.F.);
#429=ORIENTED_EDGE('',*,*,#498,.T.);
#430=CARTESIAN_POINT('',(0.0,0.0,0.0));
#431=DIRECTION('',(-1.0,0.0,0.0));
#432=DIRECTION('',(0.0,0.0,1.0));
#433=SURFACE_STYLE_FILL_AREA(#499);
#434=ORIENTED_EDGE('',*,*,#498,.F.);
#435=ORIENTED_EDGE('',*,*,#500,.T.);
#436=CARTESIAN_POINT('',(1032.0,0.0,0.0));
#437=DIRECTION('',(1.0,-0.0,0.0));
#438=DIRECTION('',(0.0,0.0,-1.0));
#439=SURFACE_STYLE_FILL_AREA(#501);
#440=ORIENTED_EDGE('',*,*,#500,.F.);
#441=ORIENTED_EDGE('',*,*,#502,.T.);
#442=CARTESIAN_POINT('',(0.0,0.0,0.0));
#443=DIRECTION('',(-1.0,0.0,0.0));
#444=DIRECTION('',(0.0,0.0,1.0));
#445=SURFACE_STYLE_FILL_AREA(#503);
#446=ORIENTED_EDGE('',*,*,#502,.F.);
#447=ORIENTED_EDGE('',*,*,#504,.T.);
#448=CARTESIAN_POINT('',(1049.0,0.0,0.0));
#449=DIRECTION('',(-1.0,0.0,-0.0));
#450=DIRECTION('',(0.0,0.0,1.0));
#451=SURFACE_STYLE_FILL_AREA(#505);
#452=ORIENTED_EDGE('',*,*,#504,.F.);
#453=ORIENTED_EDGE('',*,*,#506,.T.);
#454=CARTESIAN_POINT('',(1049.0,20.75,0.0));
#455=DIRECTION('',(-1.0,0.0,0.0));
#456=DIRECTION('',(0.0,0.0,1.0));
#457=SURFACE_STYLE_FILL_AREA(#507);
#458=ORIENTED_EDGE('',*,*,#506,.F.);
#459=ORIENTED_EDGE('',*,*,#508,.T.);
#460=CARTESIAN_POINT('',(0.0,0.0,0.0));
#461=DIRECTION('',(-1.0,0.0,0.0));
#462=DIRECTION('',(0.0,0.0,1.0));
#463=SURFACE_STYLE_FILL_AREA(#509);
#464=ORIENTED_EDGE('',*,*,#508,.F.);
#465=ORIENTED_EDGE('',*,*,#510,.T.);
#466=CARTESIAN_POINT('',(1084.0,0.0,0.0));
#467=DIRECTION('',(-1.0,0.0,-0.0));
#468=DIRECTION('',(0.0,0.0,1.0));
#469=SURFACE_STYLE_FILL_AREA(#511);
#470=ORIENTED_EDGE('',*,*,#510,.F.);
#471=CARTESIAN_POINT('',(1084.0,5.75000000000011,0.0));
#472=DIRECTION('',(-1.0,0.0,0.0));
#473=DIRECTION('',(0.0,0.0,1.0));
#474=SURFACE_STYLE_FILL_AREA(#512);
#475=ORIENTED_EDGE('',*,*,#481,.T.);
#476=CARTESIAN_POINT('',(-45.0,5.75,0.0));
#477=DIRECTION('',(1.0,0.0,0.0));
#478=DIRECTION('',(0.0,0.0,-1.0));
#479=SURFACE_STYLE_FILL_AREA(#513);
#480=FILL_AREA_STYLE('',(#514));
#481=EDGE_CURVE('',#515,#515,#516,.T.);
#482=EDGE_CURVE('',#517,#517,#518,.T.);
#483=FILL_AREA_STYLE('',(#519));
#484=EDGE_CURVE('',#520,#520,#521,.T.);
#485=FILL_AREA_STYLE('',(#522));
#486=EDGE_CURVE('',#523,#523,#524,.T.);
#487=FILL_AREA_STYLE('',(#525));
#488=EDGE_CURVE('',#526,#526,#527,.T.);
#489=FILL_AREA_STYLE('',(#528));
#490=EDGE_CURVE('',#529,#529,#530,.T.);
#491=FILL_AREA_STYLE('',(#531));
#492=EDGE_CURVE('',#532,#532,#533,.T.);
#493=FILL_AREA_STYLE('',(#534));
#494=EDGE_CURVE('',#535,#535,#536,.T.);
#495=FILL_AREA_STYLE('',(#537));
#496=EDGE_CURVE('',#538,#538,#539,.T.);
#497=FILL_AREA_STYLE('',(#540));
#498=EDGE_CURVE('',#541,#541,#542,.T.);
#499=FILL_AREA_STYLE('',(#543));
#500=EDGE_CURVE('',#544,#544,#545,.T.);
#501=FILL_AREA_STYLE('',(#546));
#502=EDGE_CURVE('',#547,#547,#548,.T.);
#503=FILL_AREA_STYLE('',(#549));
#504=EDGE_CURVE('',#550,#550,#551,.T.);
#505=FILL_AREA_STYLE('',(#552));
#506=EDGE_CURVE('',#553,#553,#554,.T.);
#507=FILL_AREA_STYLE('',(#555));
#508=EDGE_CURVE('',#556,#556,#557,.T.);
#509=FILL_AREA_STYLE('',(#558));
#510=EDGE_CURVE('',#559,#559,#560,.T.);
#511=FILL_AREA_STYLE('',(#561));
#512=FILL_AREA_STYLE('',(#562));
#513=FILL_AREA_STYLE('',(#563));
#514=FILL_AREA_STYLE_COLOUR('',#564);
#515=VERTEX_POINT('',#565);
#516=CIRCLE('',#566,11.5);
#517=VERTEX_POINT('',#567);
#518=CIRCLE('',#568,12.5);
#519=FILL_AREA_STYLE_COLOUR('',#569);
#520=VERTEX_POINT('',#570);
#521=CIRCLE('',#571,12.5);
#522=FILL_AREA_STYLE_COLOUR('',#572);
#523=VERTEX_POINT('',#573);
#524=CIRCLE('',#574,20.0);
#525=FILL_AREA_STYLE_COLOUR('',#575);
#526=VERTEX_POINT('',#576);
#527=CIRCLE('',#577,28.5);
#528=FILL_AREA_STYLE_COLOUR('',#578);
#529=VERTEX_POINT('',#579);
#530=CIRCLE('',#580,29.0);
#531=FILL_AREA_STYLE_COLOUR('',#581);
#532=VERTEX_POINT('',#582);
#533=CIRCLE('',#583,30.0);
#534=FILL_AREA_STYLE_COLOUR('',#584);
#535=VERTEX_POINT('',#585);
#536=CIRCLE('',#586,30.0);
#537=FILL_AREA_STYLE_COLOUR('',#587);
#538=VERTEX_POINT('',#588);
#539=CIRCLE('',#589,20.0);
#540=FILL_AREA_STYLE_COLOUR('',#590);
#541=VERTEX_POINT('',#591);
#542=CIRCLE('',#592,20.0);
#543=FILL_AREA_STYLE_COLOUR('',#593);
#544=VERTEX_POINT('',#594);
#545=CIRCLE('',#595,30.0);
#546=FILL_AREA_STYLE_COLOUR('',#596);
#547=VERTEX_POINT('',#597);
#548=CIRCLE('',#598,30.0);
#549=FILL_AREA_STYLE_COLOUR('',#599);
#550=VERTEX_POINT('',#600);
#551=CIRCLE('',#601,29.0);
#552=FILL_AREA_STYLE_COLOUR('',#602);
#553=VERTEX_POINT('',#603);
#554=CIRCLE('',#604,12.5);
#555=FILL_AREA_STYLE_COLOUR('',#605);
#556=VERTEX_POINT('',#606);
#557=CIRCLE('',#607,12.5);
#558=FILL_AREA_STYLE_COLOUR('',#608);
#559=VERTEX_POINT('',#609);
#560=CIRCLE('',#610,11.5000000000002);
#561=FILL_AREA_STYLE_COLOUR('',#611);
#562=FILL_AREA_STYLE_COLOUR('',#612);
#563=FILL_AREA_STYLE_COLOUR('',#613);
#564=COLOUR_RGB('',0.752941191196442,0.752941191196442,0.752941191196442);
#565=CARTESIAN_POINT('',(-45.0,0.0,11.5));
#566=AXIS2_PLACEMENT_3D('',#614,#615,#616);
#567=CARTESIAN_POINT('',(-44.0,0.0,12.5));
#568=AXIS2_PLACEMENT_3D('',#617,#618,#619);
#569=COLOUR_RGB('',0.752941191196442,0.752941191196442,0.752941191196442);
#570=CARTESIAN_POINT('',(-10.0,0.0,12.5));
#571=AXIS2_PLACEMENT_3D('',#620,#621,#622);
#572=COLOUR_RGB('',0.752941191196442,0.752941191196442,0.752941191196442);
#573=CARTESIAN_POINT('',(-10.0,0.0,20.0));
#574=AXIS2_PLACEMENT_3D('',#623,#624,#625);
#575=COLOUR_RGB('',0.752941191196442,0.752941191196442,0.752941191196442);
#576=CARTESIAN_POINT('',(-16.0,0.0,28.5));
#577=AXIS2_PLACEMENT_3D('',#626,#627,#628);
#578=COLOUR_RGB('',0.752941191196442,0.752941191196442,0.752941191196442);
#579=CARTESIAN_POINT('',(-16.0,0.0,29.0));
#580=AXIS2_PLACEMENT_3D('',#629,#630,#631);
#581=COLOUR_RGB('',0.752941191196442,0.752941191196442,0.752941191196442);
#582=CARTESIAN_POINT('',(-15.0,0.0,30.0));
#583=AXIS2_PLACEMENT_3D('',#632,#633,#634);
#584=COLOUR_RGB('',0.752941191196442,0.752941191196442,0.752941191196442);
#585=CARTESIAN_POINT('',(1019.0,0.0,30.0));
#586=AXIS2_PLACEMENT_3D('',#635,#636,#637);
#587=COLOUR_RGB('',0.752941191196442,0.752941191196442,0.752941191196442);
#588=CARTESIAN_POINT('',(1022.4432761329,0.0,20.0));
#589=AXIS2_PLACEMENT_3D('',#638,#639,#640);
#590=COLOUR_RGB('',0.752941191196442,0.752941191196442,0.752941191196442);
#591=CARTESIAN_POINT('',(1028.5567238671,0.0,20.0));
#592=AXIS2_PLACEMENT_3D('',#641,#642,#643);
#593=COLOUR_RGB('',0.752941191196442,0.752941191196442,0.752941191196442);
#594=CARTESIAN_POINT('',(1032.0,0.0,30.0));
#595=AXIS2_PLACEMENT_3D('',#644,#645,#646);
#596=COLOUR_RGB('',0.752941191196442,0.752941191196442,0.752941191196442);
#597=CARTESIAN_POINT('',(1048.0,0.0,30.0));
#598=AXIS2_PLACEMENT_3D('',#647,#648,#649);
#599=COLOUR_RGB('',0.752941191196442,0.752941191196442,0.752941191196442);
#600=CARTESIAN_POINT('',(1049.0,0.0,29.0));
#601=AXIS2_PLACEMENT_3D('',#650,#651,#652);
#602=COLOUR_RGB('',0.752941191196442,0.752941191196442,0.752941191196442);
#603=CARTESIAN_POINT('',(1049.0,0.0,12.5));
#604=AXIS2_PLACEMENT_3D('',#653,#654,#655);
#605=COLOUR_RGB('',0.752941191196442,0.752941191196442,0.752941191196442);
#606=CARTESIAN_POINT('',(1083.0,0.0,12.5));
#607=AXIS2_PLACEMENT_3D('',#656,#657,#658);
#608=COLOUR_RGB('',0.752941191196442,0.752941191196442,0.752941191196442);
#609=CARTESIAN_POINT('',(1084.0,0.0,11.5000000000002));
#610=AXIS2_PLACEMENT_3D('',#659,#660,#661);
#611=COLOUR_RGB('',0.752941191196442,0.752941191196442,0.752941191196442);
#612=COLOUR_RGB('',0.752941191196442,0.752941191196442,0.752941191196442);
#613=COLOUR_RGB('',0.752941191196442,0.752941191196442,0.752941191196442);
#614=CARTESIAN_POINT('',(-45.0,0.0,0.0));
#615=DIRECTION('',(-1.0,0.0,0.0));
#616=DIRECTION('',(0.0,0.0,1.0));
#617=CARTESIAN_POINT('',(-44.0,0.0,0.0));
#618=DIRECTION('',(-1.0,0.0,0.0));
#619=DIRECTION('',(0.0,0.0,1.0));
#620=CARTESIAN_POINT('',(-10.0,0.0,0.0));
#621=DIRECTION('',(-1.0,0.0,0.0));
#622=DIRECTION('',(0.0,0.0,1.0));
#623=CARTESIAN_POINT('',(-10.0,0.0,0.0));
#624=DIRECTION('',(-1.0,0.0,0.0));
#625=DIRECTION('',(0.0,0.0,1.0));
#626=CARTESIAN_POINT('',(-16.0,0.0,0.0));
#627=DIRECTION('',(-1.0,0.0,0.0));
#628=DIRECTION('',(0.0,0.0,1.0));
#629=CARTESIAN_POINT('',(-16.0,0.0,0.0));
#630=DIRECTION('',(-1.0,0.0,0.0));
#631=DIRECTION('',(0.0,0.0,1.0));
#632=CARTESIAN_POINT('',(-15.0,0.0,0.0));
#633=DIRECTION('',(-1.0,0.0,0.0));
#634=DIRECTION('',(0.0,0.0,1.0));
#635=CARTESIAN_POINT('',(1019.0,0.0,0.0));
#636=DIRECTION('',(-1.0,0.0,0.0));
#637=DIRECTION('',(0.0,0.0,1.0));
#638=CARTESIAN_POINT('',(1022.4432761329,0.0,0.0));
#639=DIRECTION('',(-1.0,0.0,0.0));
#640=DIRECTION('',(0.0,0.0,1.0));
#641=CARTESIAN_POINT('',(1028.5567238671,0.0,0.0));
#642=DIRECTION('',(-1.0,0.0,0.0));
#643=DIRECTION('',(0.0,0.0,1.0));
#644=CARTESIAN_POINT('',(1032.0,0.0,0.0));
#645=DIRECTION('',(-1.0,0.0,0.0));
#646=DIRECTION('',(0.0,0.0,1.0));
#647=CARTESIAN_POINT('',(1048.0,0.0,0.0));
#648=DIRECTION('',(-1.0,0.0,0.0));
#649=DIRECTION('',(0.0,0.0,1.0));
#650=CARTESIAN_POINT('',(1049.0,0.0,0.0));
#651=DIRECTION('',(-1.0,0.0,0.0));
#652=DIRECTION('',(0.0,0.0,1.0));
#653=CARTESIAN_POINT('',(1049.0,0.0,0.0));
#654=DIRECTION('',(-1.0,0.0,0.0));
#655=DIRECTION('',(0.0,0.0,1.0));
#656=CARTESIAN_POINT('',(1083.0,0.0,0.0));
#657=DIRECTION('',(-1.0,0.0,0.0));
#658=DIRECTION('',(0.0,0.0,1.0));
#659=CARTESIAN_POINT('',(1084.0,0.0,0.0));
#660=DIRECTION('',(-1.0,0.0,0.0));
#661=DIRECTION('',(0.0,0.0,1.0));
ENDSEC;
END-ISO-10303-21;
