ISO-10303-21;
HEADER;
/* Generated by software containing ST-Developer
 * from STEP Tools, Inc. (www.steptools.com) 
 */

FILE_DESCRIPTION(
/* description */ (''),
/* implementation_level */ '2;1');

FILE_NAME(
/* name */ 
'C:\\INVENTOR\\COMMANDES\\Commande 2024\\Les Boissons Bois Bordet\\C24
01472 - Fabrication pince robot\\F1637AM.stp',
/* time_stamp */ '2024-05-15T12:10:34+02:00',
/* author */ ('Z420'),
/* organization */ (''),
/* preprocessor_version */ 'ST-DEVELOPER v18.1',
/* originating_system */ 'Autodesk Inventor 2022',
/* authorisation */ '');

FILE_SCHEMA (('AUTOMOTIVE_DESIGN { 1 0 10303 214 3 1 1 }'));
ENDSEC;

DATA;
#10=MECHANICAL_DESIGN_GEOMETRIC_PRESENTATION_REPRESENTATION('',(#13),#204);
#11=SHAPE_REPRESENTATION_RELATIONSHIP('SRR','None',#211,#12);
#12=ADVANCED_BREP_SHAPE_REPRESENTATION('',(#14),#203);
#13=STYLED_ITEM('',(#220),#14);
#14=MANIFOLD_SOLID_BREP('Solide1',#103);
#15=FACE_BOUND('',#31,.T.);
#16=FACE_BOUND('',#35,.T.);
#17=PLANE('',#133);
#18=PLANE('',#139);
#19=CYLINDRICAL_SURFACE('',#131,9.);
#20=CYLINDRICAL_SURFACE('',#135,5.5);
#21=CYLINDRICAL_SURFACE('',#137,15.);
#22=FACE_OUTER_BOUND('',#28,.T.);
#23=FACE_OUTER_BOUND('',#29,.T.);
#24=FACE_OUTER_BOUND('',#30,.T.);
#25=FACE_OUTER_BOUND('',#32,.T.);
#26=FACE_OUTER_BOUND('',#33,.T.);
#27=FACE_OUTER_BOUND('',#34,.T.);
#28=EDGE_LOOP('',(#72,#73,#74,#75,#76,#77));
#29=EDGE_LOOP('',(#78,#79,#80,#81,#82));
#30=EDGE_LOOP('',(#83));
#31=EDGE_LOOP('',(#84));
#32=EDGE_LOOP('',(#85,#86,#87,#88));
#33=EDGE_LOOP('',(#89,#90,#91,#92,#93));
#34=EDGE_LOOP('',(#94));
#35=EDGE_LOOP('',(#95));
#36=LINE('',#181,#40);
#37=LINE('',#187,#41);
#38=LINE('',#194,#42);
#39=LINE('',#198,#43);
#40=VECTOR('',#148,12.);
#41=VECTOR('',#155,9.);
#42=VECTOR('',#164,5.5);
#43=VECTOR('',#169,15.);
#44=CIRCLE('',#127,15.);
#45=CIRCLE('',#128,15.);
#46=CIRCLE('',#129,9.);
#47=CIRCLE('',#130,9.);
#48=CIRCLE('',#132,9.);
#49=CIRCLE('',#134,5.5);
#50=CIRCLE('',#136,5.5);
#51=CIRCLE('',#138,15.);
#52=VERTEX_POINT('',#176);
#53=VERTEX_POINT('',#177);
#54=VERTEX_POINT('',#180);
#55=VERTEX_POINT('',#182);
#56=VERTEX_POINT('',#186);
#57=VERTEX_POINT('',#190);
#58=VERTEX_POINT('',#193);
#59=VERTEX_POINT('',#197);
#60=EDGE_CURVE('',#52,#53,#44,.T.);
#61=EDGE_CURVE('',#53,#52,#45,.T.);
#62=EDGE_CURVE('',#52,#54,#36,.T.);
#63=EDGE_CURVE('',#54,#55,#46,.T.);
#64=EDGE_CURVE('',#55,#54,#47,.T.);
#65=EDGE_CURVE('',#55,#56,#37,.T.);
#66=EDGE_CURVE('',#56,#56,#48,.T.);
#67=EDGE_CURVE('',#57,#57,#49,.T.);
#68=EDGE_CURVE('',#57,#58,#38,.T.);
#69=EDGE_CURVE('',#58,#58,#50,.T.);
#70=EDGE_CURVE('',#53,#59,#39,.T.);
#71=EDGE_CURVE('',#59,#59,#51,.T.);
#72=ORIENTED_EDGE('',*,*,#60,.T.);
#73=ORIENTED_EDGE('',*,*,#61,.T.);
#74=ORIENTED_EDGE('',*,*,#62,.T.);
#75=ORIENTED_EDGE('',*,*,#63,.T.);
#76=ORIENTED_EDGE('',*,*,#64,.T.);
#77=ORIENTED_EDGE('',*,*,#62,.F.);
#78=ORIENTED_EDGE('',*,*,#63,.F.);
#79=ORIENTED_EDGE('',*,*,#64,.F.);
#80=ORIENTED_EDGE('',*,*,#65,.T.);
#81=ORIENTED_EDGE('',*,*,#66,.F.);
#82=ORIENTED_EDGE('',*,*,#65,.F.);
#83=ORIENTED_EDGE('',*,*,#66,.T.);
#84=ORIENTED_EDGE('',*,*,#67,.F.);
#85=ORIENTED_EDGE('',*,*,#67,.T.);
#86=ORIENTED_EDGE('',*,*,#68,.T.);
#87=ORIENTED_EDGE('',*,*,#69,.F.);
#88=ORIENTED_EDGE('',*,*,#68,.F.);
#89=ORIENTED_EDGE('',*,*,#60,.F.);
#90=ORIENTED_EDGE('',*,*,#61,.F.);
#91=ORIENTED_EDGE('',*,*,#70,.T.);
#92=ORIENTED_EDGE('',*,*,#71,.T.);
#93=ORIENTED_EDGE('',*,*,#70,.F.);
#94=ORIENTED_EDGE('',*,*,#71,.F.);
#95=ORIENTED_EDGE('',*,*,#69,.T.);
#96=CONICAL_SURFACE('',#126,12.,0.876058050598193);
#97=ADVANCED_FACE('',(#22),#96,.F.);
#98=ADVANCED_FACE('',(#23),#19,.F.);
#99=ADVANCED_FACE('',(#24,#15),#17,.T.);
#100=ADVANCED_FACE('',(#25),#20,.F.);
#101=ADVANCED_FACE('',(#26),#21,.T.);
#102=ADVANCED_FACE('',(#27,#16),#18,.F.);
#103=CLOSED_SHELL('',(#97,#98,#99,#100,#101,#102));
#104=DERIVED_UNIT_ELEMENT(#107,1.);
#105=DERIVED_UNIT_ELEMENT(#206,-3.);
#106=DIMENSIONAL_EXPONENTS(1.,0.,0.,0.,0.,0.,0.);
#107=(
CONVERSION_BASED_UNIT('gram',#109)
MASS_UNIT()
NAMED_UNIT(#106)
);
#108=(
MASS_UNIT()
NAMED_UNIT(*)
SI_UNIT(.KILO.,.GRAM.)
);
#109=MASS_MEASURE_WITH_UNIT(MASS_MEASURE(0.001),#108);
#110=DERIVED_UNIT((#104,#105));
#111=MEASURE_REPRESENTATION_ITEM('density measure',
POSITIVE_RATIO_MEASURE(7.85),#110);
#112=PROPERTY_DEFINITION_REPRESENTATION(#117,#114);
#113=PROPERTY_DEFINITION_REPRESENTATION(#118,#115);
#114=REPRESENTATION('material name',(#116),#203);
#115=REPRESENTATION('density',(#111),#203);
#116=DESCRIPTIVE_REPRESENTATION_ITEM('42CD4 (42CrMo4)',
'42CD4 (42CrMo4)');
#117=PROPERTY_DEFINITION('material property','material name',#213);
#118=PROPERTY_DEFINITION('material property','density of part',#213);
#119=DATE_TIME_ROLE('creation_date');
#120=APPLIED_DATE_AND_TIME_ASSIGNMENT(#121,#119,(#213));
#121=DATE_AND_TIME(#122,#123);
#122=CALENDAR_DATE(2024,5,2);
#123=LOCAL_TIME(0,0,0.,#124);
#124=COORDINATED_UNIVERSAL_TIME_OFFSET(0,0,.BEHIND.);
#125=AXIS2_PLACEMENT_3D('placement',#174,#140,#141);
#126=AXIS2_PLACEMENT_3D('',#175,#142,#143);
#127=AXIS2_PLACEMENT_3D('',#178,#144,#145);
#128=AXIS2_PLACEMENT_3D('',#179,#146,#147);
#129=AXIS2_PLACEMENT_3D('',#183,#149,#150);
#130=AXIS2_PLACEMENT_3D('',#184,#151,#152);
#131=AXIS2_PLACEMENT_3D('',#185,#153,#154);
#132=AXIS2_PLACEMENT_3D('',#188,#156,#157);
#133=AXIS2_PLACEMENT_3D('',#189,#158,#159);
#134=AXIS2_PLACEMENT_3D('',#191,#160,#161);
#135=AXIS2_PLACEMENT_3D('',#192,#162,#163);
#136=AXIS2_PLACEMENT_3D('',#195,#165,#166);
#137=AXIS2_PLACEMENT_3D('',#196,#167,#168);
#138=AXIS2_PLACEMENT_3D('',#199,#170,#171);
#139=AXIS2_PLACEMENT_3D('',#200,#172,#173);
#140=DIRECTION('axis',(0.,0.,1.));
#141=DIRECTION('refdir',(1.,0.,0.));
#142=DIRECTION('center_axis',(0.,0.,1.));
#143=DIRECTION('ref_axis',(-1.,0.,0.));
#144=DIRECTION('center_axis',(0.,0.,1.));
#145=DIRECTION('ref_axis',(1.,0.,0.));
#146=DIRECTION('center_axis',(0.,0.,1.));
#147=DIRECTION('ref_axis',(1.,0.,0.));
#148=DIRECTION('',(-0.768221279597376,-9.4079973109581E-17,-0.64018439966448));
#149=DIRECTION('center_axis',(0.,0.,-1.));
#150=DIRECTION('ref_axis',(-1.,0.,0.));
#151=DIRECTION('center_axis',(0.,0.,-1.));
#152=DIRECTION('ref_axis',(-1.,0.,0.));
#153=DIRECTION('center_axis',(0.,0.,1.));
#154=DIRECTION('ref_axis',(1.,0.,0.));
#155=DIRECTION('',(0.,0.,-1.));
#156=DIRECTION('center_axis',(0.,0.,1.));
#157=DIRECTION('ref_axis',(1.,0.,0.));
#158=DIRECTION('center_axis',(0.,0.,1.));
#159=DIRECTION('ref_axis',(1.,0.,0.));
#160=DIRECTION('center_axis',(0.,0.,1.));
#161=DIRECTION('ref_axis',(1.,0.,0.));
#162=DIRECTION('center_axis',(0.,0.,1.));
#163=DIRECTION('ref_axis',(1.,0.,0.));
#164=DIRECTION('',(0.,0.,-1.));
#165=DIRECTION('center_axis',(0.,0.,1.));
#166=DIRECTION('ref_axis',(1.,0.,0.));
#167=DIRECTION('center_axis',(0.,0.,1.));
#168=DIRECTION('ref_axis',(1.,0.,0.));
#169=DIRECTION('',(0.,0.,-1.));
#170=DIRECTION('center_axis',(0.,0.,1.));
#171=DIRECTION('ref_axis',(1.,0.,0.));
#172=DIRECTION('center_axis',(0.,0.,1.));
#173=DIRECTION('ref_axis',(1.,0.,0.));
#174=CARTESIAN_POINT('',(0.,0.,0.));
#175=CARTESIAN_POINT('Origin',(0.,0.,17.5));
#176=CARTESIAN_POINT('',(15.,0.,20.));
#177=CARTESIAN_POINT('',(-15.,-1.83697019872103E-15,20.));
#178=CARTESIAN_POINT('Origin',(0.,0.,20.));
#179=CARTESIAN_POINT('Origin',(0.,0.,20.));
#180=CARTESIAN_POINT('',(9.,-1.10218211923262E-15,15.));
#181=CARTESIAN_POINT('',(12.,1.46957615897682E-15,17.5));
#182=CARTESIAN_POINT('',(-9.,-1.10218211923262E-15,15.));
#183=CARTESIAN_POINT('Origin',(0.,0.,15.));
#184=CARTESIAN_POINT('Origin',(0.,0.,15.));
#185=CARTESIAN_POINT('Origin',(0.,0.,12.5));
#186=CARTESIAN_POINT('',(-9.,-1.10218211923262E-15,5.));
#187=CARTESIAN_POINT('',(-9.,-1.10218211923262E-15,12.5));
#188=CARTESIAN_POINT('Origin',(0.,0.,5.));
#189=CARTESIAN_POINT('Origin',(0.,0.,5.));
#190=CARTESIAN_POINT('',(-5.5,-6.73555739531044E-16,5.));
#191=CARTESIAN_POINT('Origin',(0.,0.,5.));
#192=CARTESIAN_POINT('Origin',(0.,0.,-26.9041575982343));
#193=CARTESIAN_POINT('',(-5.5,-6.73555739531044E-16,0.));
#194=CARTESIAN_POINT('',(-5.5,-6.73555739531044E-16,-26.9041575982343));
#195=CARTESIAN_POINT('Origin',(0.,0.,0.));
#196=CARTESIAN_POINT('Origin',(0.,0.,0.));
#197=CARTESIAN_POINT('',(-15.,-1.83697019872103E-15,0.));
#198=CARTESIAN_POINT('',(-15.,-1.83697019872103E-15,0.));
#199=CARTESIAN_POINT('Origin',(0.,0.,0.));
#200=CARTESIAN_POINT('Origin',(0.,0.,0.));
#201=UNCERTAINTY_MEASURE_WITH_UNIT(LENGTH_MEASURE(0.01),#205,
'DISTANCE_ACCURACY_VALUE',
'Maximum model space distance between geometric entities at asserted c
onnectivities');
#202=UNCERTAINTY_MEASURE_WITH_UNIT(LENGTH_MEASURE(0.01),#205,
'DISTANCE_ACCURACY_VALUE',
'Maximum model space distance between geometric entities at asserted c
onnectivities');
#203=(
GEOMETRIC_REPRESENTATION_CONTEXT(3)
GLOBAL_UNCERTAINTY_ASSIGNED_CONTEXT((#201))
GLOBAL_UNIT_ASSIGNED_CONTEXT((#205,#207,#208))
REPRESENTATION_CONTEXT('','3D')
);
#204=(
GEOMETRIC_REPRESENTATION_CONTEXT(3)
GLOBAL_UNCERTAINTY_ASSIGNED_CONTEXT((#202))
GLOBAL_UNIT_ASSIGNED_CONTEXT((#205,#207,#208))
REPRESENTATION_CONTEXT('','3D')
);
#205=(
LENGTH_UNIT()
NAMED_UNIT(*)
SI_UNIT(.MILLI.,.METRE.)
);
#206=(
LENGTH_UNIT()
NAMED_UNIT(*)
SI_UNIT(.CENTI.,.METRE.)
);
#207=(
NAMED_UNIT(*)
PLANE_ANGLE_UNIT()
SI_UNIT($,.RADIAN.)
);
#208=(
NAMED_UNIT(*)
SI_UNIT($,.STERADIAN.)
SOLID_ANGLE_UNIT()
);
#209=SHAPE_DEFINITION_REPRESENTATION(#210,#211);
#210=PRODUCT_DEFINITION_SHAPE('',$,#213);
#211=SHAPE_REPRESENTATION('',(#125),#203);
#212=PRODUCT_DEFINITION_CONTEXT('part definition',#217,'design');
#213=PRODUCT_DEFINITION('F1637AM','F1637AM',#214,#212);
#214=PRODUCT_DEFINITION_FORMATION('',$,#219);
#215=PRODUCT_RELATED_PRODUCT_CATEGORY('F1637AM','F1637AM',(#219));
#216=APPLICATION_PROTOCOL_DEFINITION('international standard',
'automotive_design',2009,#217);
#217=APPLICATION_CONTEXT(
'Core Data for Automotive Mechanical Design Process');
#218=PRODUCT_CONTEXT('part definition',#217,'mechanical');
#219=PRODUCT('F1637AM','F1637AM',$,(#218));
#220=PRESENTATION_STYLE_ASSIGNMENT((#221));
#221=SURFACE_STYLE_USAGE(.BOTH.,#224);
#222=SURFACE_STYLE_RENDERING_WITH_PROPERTIES($,#228,(#223));
#223=SURFACE_STYLE_TRANSPARENT(0.);
#224=SURFACE_SIDE_STYLE('',(#225,#222));
#225=SURFACE_STYLE_FILL_AREA(#226);
#226=FILL_AREA_STYLE('',(#227));
#227=FILL_AREA_STYLE_COLOUR('',#228);
#228=COLOUR_RGB('',0.698039215686274,0.698039215686274,0.698039215686274);
ENDSEC;
END-ISO-10303-21;
