ISO-10303-21;
HEADER;
/* Generated by software containing ST-Developer
 * from STEP Tools, Inc. (www.steptools.com) 
 */

FILE_DESCRIPTION(
/* description */ (''),
/* implementation_level */ '2;1');

FILE_NAME(
/* name */ 
'C:\\INVENTOR\\COMMANDES\\Commande 2021 VK\\C2101904 - Nouvelle unit\X\E9
e de production piquet et \X\E9chalas\\CAO 3D\\Sous ensemble 21 - Appo
inteuse 4 faces\\Sous ensemble 21.1 - T\X\EAte\\F0329OB.stp',
/* time_stamp */ '2024-05-20T14:46:00+02:00',
/* author */ ('Z420'),
/* organization */ (''),
/* preprocessor_version */ 'ST-DEVELOPER v18.1',
/* originating_system */ 'Autodesk Inventor 2022',
/* authorisation */ '');

FILE_SCHEMA (('AUTOMOTIVE_DESIGN { 1 0 10303 214 3 1 1 }'));
ENDSEC;

DATA;
#10=MECHANICAL_DESIGN_GEOMETRIC_PRESENTATION_REPRESENTATION('',(#13),#390);
#11=SHAPE_REPRESENTATION_RELATIONSHIP('SRR','None',#397,#12);
#12=ADVANCED_BREP_SHAPE_REPRESENTATION('',(#14),#389);
#13=STYLED_ITEM('',(#406),#14);
#14=MANIFOLD_SOLID_BREP('Solide1',#204);
#15=FACE_BOUND('',#65,.T.);
#16=FACE_BOUND('',#69,.T.);
#17=FACE_BOUND('',#72,.T.);
#18=FACE_BOUND('',#75,.T.);
#19=PLANE('',#241);
#20=PLANE('',#247);
#21=PLANE('',#252);
#22=PLANE('',#256);
#23=CONICAL_SURFACE('',#235,16.,0.785398163397448);
#24=CONICAL_SURFACE('',#238,8.5,0.785398163397448);
#25=CONICAL_SURFACE('',#254,19.75,0.785398163397448);
#26=LINE('',#344,#34);
#27=LINE('',#350,#35);
#28=LINE('',#355,#36);
#29=LINE('',#360,#37);
#30=LINE('',#366,#38);
#31=LINE('',#376,#39);
#32=LINE('',#383,#40);
#33=LINE('',#386,#41);
#34=VECTOR('',#276,12.);
#35=VECTOR('',#283,16.);
#36=VECTOR('',#288,8.5);
#37=VECTOR('',#295,8.25);
#38=VECTOR('',#302,4.5);
#39=VECTOR('',#315,20.);
#40=VECTOR('',#324,19.75);
#41=VECTOR('',#329,2.6);
#42=CYLINDRICAL_SURFACE('',#233,12.);
#43=CYLINDRICAL_SURFACE('',#242,8.25);
#44=CYLINDRICAL_SURFACE('',#244,4.5);
#45=CYLINDRICAL_SURFACE('',#249,20.);
#46=CYLINDRICAL_SURFACE('',#257,2.6);
#47=FACE_OUTER_BOUND('',#60,.T.);
#48=FACE_OUTER_BOUND('',#61,.T.);
#49=FACE_OUTER_BOUND('',#62,.T.);
#50=FACE_OUTER_BOUND('',#63,.T.);
#51=FACE_OUTER_BOUND('',#64,.T.);
#52=FACE_OUTER_BOUND('',#66,.T.);
#53=FACE_OUTER_BOUND('',#67,.T.);
#54=FACE_OUTER_BOUND('',#68,.T.);
#55=FACE_OUTER_BOUND('',#70,.T.);
#56=FACE_OUTER_BOUND('',#71,.T.);
#57=FACE_OUTER_BOUND('',#73,.T.);
#58=FACE_OUTER_BOUND('',#74,.T.);
#59=FACE_OUTER_BOUND('',#76,.T.);
#60=EDGE_LOOP('',(#138,#139,#140,#141,#142,#143));
#61=EDGE_LOOP('',(#144,#145,#146,#147,#148));
#62=EDGE_LOOP('',(#149,#150,#151,#152,#153,#154));
#63=EDGE_LOOP('',(#155,#156,#157,#158));
#64=EDGE_LOOP('',(#159));
#65=EDGE_LOOP('',(#160));
#66=EDGE_LOOP('',(#161,#162,#163,#164));
#67=EDGE_LOOP('',(#165,#166,#167,#168));
#68=EDGE_LOOP('',(#169));
#69=EDGE_LOOP('',(#170));
#70=EDGE_LOOP('',(#171,#172,#173,#174,#175,#176));
#71=EDGE_LOOP('',(#177));
#72=EDGE_LOOP('',(#178));
#73=EDGE_LOOP('',(#179,#180,#181,#182,#183));
#74=EDGE_LOOP('',(#184));
#75=EDGE_LOOP('',(#185));
#76=EDGE_LOOP('',(#186,#187,#188,#189));
#77=CIRCLE('',#228,12.);
#78=CIRCLE('',#229,12.);
#79=CIRCLE('',#230,5.);
#80=CIRCLE('',#231,13.4644660940673);
#81=CIRCLE('',#232,13.4644660940673);
#82=CIRCLE('',#234,12.);
#83=CIRCLE('',#236,20.);
#84=CIRCLE('',#237,20.);
#85=CIRCLE('',#239,8.75);
#86=CIRCLE('',#240,8.25);
#87=CIRCLE('',#243,8.25);
#88=CIRCLE('',#245,4.5);
#89=CIRCLE('',#246,4.5);
#90=CIRCLE('',#248,2.6);
#91=CIRCLE('',#250,20.);
#92=CIRCLE('',#251,20.);
#93=CIRCLE('',#253,2.6);
#94=CIRCLE('',#255,19.5);
#95=VERTEX_POINT('',#332);
#96=VERTEX_POINT('',#333);
#97=VERTEX_POINT('',#336);
#98=VERTEX_POINT('',#338);
#99=VERTEX_POINT('',#342);
#100=VERTEX_POINT('',#346);
#101=VERTEX_POINT('',#347);
#102=VERTEX_POINT('',#352);
#103=VERTEX_POINT('',#354);
#104=VERTEX_POINT('',#359);
#105=VERTEX_POINT('',#363);
#106=VERTEX_POINT('',#365);
#107=VERTEX_POINT('',#369);
#108=VERTEX_POINT('',#372);
#109=VERTEX_POINT('',#373);
#110=VERTEX_POINT('',#378);
#111=VERTEX_POINT('',#381);
#112=EDGE_CURVE('',#95,#96,#77,.T.);
#113=EDGE_CURVE('',#96,#95,#78,.T.);
#114=EDGE_CURVE('',#95,#97,#79,.T.);
#115=EDGE_CURVE('',#97,#98,#80,.T.);
#116=EDGE_CURVE('',#98,#97,#81,.T.);
#117=EDGE_CURVE('',#99,#99,#82,.T.);
#118=EDGE_CURVE('',#99,#96,#26,.T.);
#119=EDGE_CURVE('',#100,#101,#83,.T.);
#120=EDGE_CURVE('',#101,#100,#84,.T.);
#121=EDGE_CURVE('',#100,#98,#27,.T.);
#122=EDGE_CURVE('',#102,#102,#85,.T.);
#123=EDGE_CURVE('',#102,#103,#28,.T.);
#124=EDGE_CURVE('',#103,#103,#86,.T.);
#125=EDGE_CURVE('',#103,#104,#29,.T.);
#126=EDGE_CURVE('',#104,#104,#87,.T.);
#127=EDGE_CURVE('',#105,#105,#88,.T.);
#128=EDGE_CURVE('',#105,#106,#30,.T.);
#129=EDGE_CURVE('',#106,#106,#89,.T.);
#130=EDGE_CURVE('',#107,#107,#90,.T.);
#131=EDGE_CURVE('',#108,#109,#91,.T.);
#132=EDGE_CURVE('',#109,#108,#92,.T.);
#133=EDGE_CURVE('',#109,#101,#31,.T.);
#134=EDGE_CURVE('',#110,#110,#93,.T.);
#135=EDGE_CURVE('',#111,#111,#94,.T.);
#136=EDGE_CURVE('',#111,#108,#32,.T.);
#137=EDGE_CURVE('',#107,#110,#33,.T.);
#138=ORIENTED_EDGE('',*,*,#112,.T.);
#139=ORIENTED_EDGE('',*,*,#113,.T.);
#140=ORIENTED_EDGE('',*,*,#114,.T.);
#141=ORIENTED_EDGE('',*,*,#115,.T.);
#142=ORIENTED_EDGE('',*,*,#116,.T.);
#143=ORIENTED_EDGE('',*,*,#114,.F.);
#144=ORIENTED_EDGE('',*,*,#117,.F.);
#145=ORIENTED_EDGE('',*,*,#118,.T.);
#146=ORIENTED_EDGE('',*,*,#112,.F.);
#147=ORIENTED_EDGE('',*,*,#113,.F.);
#148=ORIENTED_EDGE('',*,*,#118,.F.);
#149=ORIENTED_EDGE('',*,*,#119,.T.);
#150=ORIENTED_EDGE('',*,*,#120,.T.);
#151=ORIENTED_EDGE('',*,*,#121,.T.);
#152=ORIENTED_EDGE('',*,*,#115,.F.);
#153=ORIENTED_EDGE('',*,*,#116,.F.);
#154=ORIENTED_EDGE('',*,*,#121,.F.);
#155=ORIENTED_EDGE('',*,*,#122,.T.);
#156=ORIENTED_EDGE('',*,*,#123,.T.);
#157=ORIENTED_EDGE('',*,*,#124,.T.);
#158=ORIENTED_EDGE('',*,*,#123,.F.);
#159=ORIENTED_EDGE('',*,*,#117,.T.);
#160=ORIENTED_EDGE('',*,*,#122,.F.);
#161=ORIENTED_EDGE('',*,*,#124,.F.);
#162=ORIENTED_EDGE('',*,*,#125,.T.);
#163=ORIENTED_EDGE('',*,*,#126,.F.);
#164=ORIENTED_EDGE('',*,*,#125,.F.);
#165=ORIENTED_EDGE('',*,*,#127,.F.);
#166=ORIENTED_EDGE('',*,*,#128,.T.);
#167=ORIENTED_EDGE('',*,*,#129,.T.);
#168=ORIENTED_EDGE('',*,*,#128,.F.);
#169=ORIENTED_EDGE('',*,*,#129,.F.);
#170=ORIENTED_EDGE('',*,*,#130,.F.);
#171=ORIENTED_EDGE('',*,*,#131,.F.);
#172=ORIENTED_EDGE('',*,*,#132,.F.);
#173=ORIENTED_EDGE('',*,*,#133,.T.);
#174=ORIENTED_EDGE('',*,*,#119,.F.);
#175=ORIENTED_EDGE('',*,*,#120,.F.);
#176=ORIENTED_EDGE('',*,*,#133,.F.);
#177=ORIENTED_EDGE('',*,*,#126,.T.);
#178=ORIENTED_EDGE('',*,*,#134,.T.);
#179=ORIENTED_EDGE('',*,*,#135,.T.);
#180=ORIENTED_EDGE('',*,*,#136,.T.);
#181=ORIENTED_EDGE('',*,*,#131,.T.);
#182=ORIENTED_EDGE('',*,*,#132,.T.);
#183=ORIENTED_EDGE('',*,*,#136,.F.);
#184=ORIENTED_EDGE('',*,*,#135,.F.);
#185=ORIENTED_EDGE('',*,*,#127,.T.);
#186=ORIENTED_EDGE('',*,*,#130,.T.);
#187=ORIENTED_EDGE('',*,*,#137,.T.);
#188=ORIENTED_EDGE('',*,*,#134,.F.);
#189=ORIENTED_EDGE('',*,*,#137,.F.);
#190=TOROIDAL_SURFACE('',#227,17.,5.);
#191=ADVANCED_FACE('',(#47),#190,.F.);
#192=ADVANCED_FACE('',(#48),#42,.T.);
#193=ADVANCED_FACE('',(#49),#23,.T.);
#194=ADVANCED_FACE('',(#50),#24,.F.);
#195=ADVANCED_FACE('',(#51,#15),#19,.T.);
#196=ADVANCED_FACE('',(#52),#43,.F.);
#197=ADVANCED_FACE('',(#53),#44,.F.);
#198=ADVANCED_FACE('',(#54,#16),#20,.T.);
#199=ADVANCED_FACE('',(#55),#45,.T.);
#200=ADVANCED_FACE('',(#56,#17),#21,.F.);
#201=ADVANCED_FACE('',(#57),#25,.T.);
#202=ADVANCED_FACE('',(#58,#18),#22,.T.);
#203=ADVANCED_FACE('',(#59),#46,.F.);
#204=CLOSED_SHELL('',(#191,#192,#193,#194,#195,#196,#197,#198,#199,#200,
#201,#202,#203));
#205=DERIVED_UNIT_ELEMENT(#208,1.);
#206=DERIVED_UNIT_ELEMENT(#392,-3.);
#207=DIMENSIONAL_EXPONENTS(1.,0.,0.,0.,0.,0.,0.);
#208=(
CONVERSION_BASED_UNIT('gram',#210)
MASS_UNIT()
NAMED_UNIT(#207)
);
#209=(
MASS_UNIT()
NAMED_UNIT(*)
SI_UNIT(.KILO.,.GRAM.)
);
#210=MASS_MEASURE_WITH_UNIT(MASS_MEASURE(0.001),#209);
#211=DERIVED_UNIT((#205,#206));
#212=MEASURE_REPRESENTATION_ITEM('density measure',
POSITIVE_RATIO_MEASURE(0.958),#211);
#213=PROPERTY_DEFINITION_REPRESENTATION(#218,#215);
#214=PROPERTY_DEFINITION_REPRESENTATION(#219,#216);
#215=REPRESENTATION('material name',(#217),#389);
#216=REPRESENTATION('density',(#212),#389);
#217=DESCRIPTIVE_REPRESENTATION_ITEM('PEHD500 (Blanc)',
'PEHD500 (Blanc)');
#218=PROPERTY_DEFINITION('material property','material name',#399);
#219=PROPERTY_DEFINITION('material property','density of part',#399);
#220=DATE_TIME_ROLE('creation_date');
#221=APPLIED_DATE_AND_TIME_ASSIGNMENT(#222,#220,(#399));
#222=DATE_AND_TIME(#223,#224);
#223=CALENDAR_DATE(2021,30,12);
#224=LOCAL_TIME(0,0,0.,#225);
#225=COORDINATED_UNIVERSAL_TIME_OFFSET(0,0,.BEHIND.);
#226=AXIS2_PLACEMENT_3D('placement',#330,#258,#259);
#227=AXIS2_PLACEMENT_3D('',#331,#260,#261);
#228=AXIS2_PLACEMENT_3D('',#334,#262,#263);
#229=AXIS2_PLACEMENT_3D('',#335,#264,#265);
#230=AXIS2_PLACEMENT_3D('',#337,#266,#267);
#231=AXIS2_PLACEMENT_3D('',#339,#268,#269);
#232=AXIS2_PLACEMENT_3D('',#340,#270,#271);
#233=AXIS2_PLACEMENT_3D('',#341,#272,#273);
#234=AXIS2_PLACEMENT_3D('',#343,#274,#275);
#235=AXIS2_PLACEMENT_3D('',#345,#277,#278);
#236=AXIS2_PLACEMENT_3D('',#348,#279,#280);
#237=AXIS2_PLACEMENT_3D('',#349,#281,#282);
#238=AXIS2_PLACEMENT_3D('',#351,#284,#285);
#239=AXIS2_PLACEMENT_3D('',#353,#286,#287);
#240=AXIS2_PLACEMENT_3D('',#356,#289,#290);
#241=AXIS2_PLACEMENT_3D('',#357,#291,#292);
#242=AXIS2_PLACEMENT_3D('',#358,#293,#294);
#243=AXIS2_PLACEMENT_3D('',#361,#296,#297);
#244=AXIS2_PLACEMENT_3D('',#362,#298,#299);
#245=AXIS2_PLACEMENT_3D('',#364,#300,#301);
#246=AXIS2_PLACEMENT_3D('',#367,#303,#304);
#247=AXIS2_PLACEMENT_3D('',#368,#305,#306);
#248=AXIS2_PLACEMENT_3D('',#370,#307,#308);
#249=AXIS2_PLACEMENT_3D('',#371,#309,#310);
#250=AXIS2_PLACEMENT_3D('',#374,#311,#312);
#251=AXIS2_PLACEMENT_3D('',#375,#313,#314);
#252=AXIS2_PLACEMENT_3D('',#377,#316,#317);
#253=AXIS2_PLACEMENT_3D('',#379,#318,#319);
#254=AXIS2_PLACEMENT_3D('',#380,#320,#321);
#255=AXIS2_PLACEMENT_3D('',#382,#322,#323);
#256=AXIS2_PLACEMENT_3D('',#384,#325,#326);
#257=AXIS2_PLACEMENT_3D('',#385,#327,#328);
#258=DIRECTION('axis',(0.,0.,1.));
#259=DIRECTION('refdir',(1.,0.,0.));
#260=DIRECTION('center_axis',(0.,0.,1.));
#261=DIRECTION('ref_axis',(1.,0.,0.));
#262=DIRECTION('center_axis',(0.,0.,1.));
#263=DIRECTION('ref_axis',(1.,1.22464679914735E-16,0.));
#264=DIRECTION('center_axis',(0.,0.,1.));
#265=DIRECTION('ref_axis',(1.,1.22464679914735E-16,0.));
#266=DIRECTION('center_axis',(1.22464679914735E-16,-1.,0.));
#267=DIRECTION('ref_axis',(-1.,-1.22464679914735E-16,0.));
#268=DIRECTION('center_axis',(0.,0.,-1.));
#269=DIRECTION('ref_axis',(1.,1.22464679914735E-16,0.));
#270=DIRECTION('center_axis',(0.,0.,-1.));
#271=DIRECTION('ref_axis',(1.,1.22464679914735E-16,0.));
#272=DIRECTION('center_axis',(0.,0.,-1.));
#273=DIRECTION('ref_axis',(-1.,0.,0.));
#274=DIRECTION('center_axis',(0.,0.,-1.));
#275=DIRECTION('ref_axis',(-1.,0.,0.));
#276=DIRECTION('',(0.,0.,1.));
#277=DIRECTION('center_axis',(0.,0.,1.));
#278=DIRECTION('ref_axis',(-1.,0.,0.));
#279=DIRECTION('center_axis',(0.,0.,-1.));
#280=DIRECTION('ref_axis',(-1.,0.,0.));
#281=DIRECTION('center_axis',(0.,0.,-1.));
#282=DIRECTION('ref_axis',(-1.,0.,0.));
#283=DIRECTION('',(-0.707106781186548,-8.65956056235493E-17,-0.707106781186548));
#284=DIRECTION('center_axis',(0.,0.,-1.));
#285=DIRECTION('ref_axis',(1.,0.,0.));
#286=DIRECTION('center_axis',(0.,0.,-1.));
#287=DIRECTION('ref_axis',(1.,0.,0.));
#288=DIRECTION('',(0.707106781186548,-8.65956056235493E-17,0.707106781186548));
#289=DIRECTION('center_axis',(0.,0.,1.));
#290=DIRECTION('ref_axis',(1.,0.,0.));
#291=DIRECTION('center_axis',(0.,0.,-1.));
#292=DIRECTION('ref_axis',(-1.,0.,0.));
#293=DIRECTION('center_axis',(0.,0.,-1.));
#294=DIRECTION('ref_axis',(1.,0.,0.));
#295=DIRECTION('',(0.,0.,1.));
#296=DIRECTION('center_axis',(0.,0.,-1.));
#297=DIRECTION('ref_axis',(1.,0.,0.));
#298=DIRECTION('center_axis',(0.,0.,-1.));
#299=DIRECTION('ref_axis',(1.,0.,0.));
#300=DIRECTION('center_axis',(0.,0.,-1.));
#301=DIRECTION('ref_axis',(1.,0.,0.));
#302=DIRECTION('',(0.,0.,-1.));
#303=DIRECTION('center_axis',(0.,0.,-1.));
#304=DIRECTION('ref_axis',(1.,0.,0.));
#305=DIRECTION('center_axis',(0.,0.,1.));
#306=DIRECTION('ref_axis',(1.,0.,0.));
#307=DIRECTION('center_axis',(0.,0.,1.));
#308=DIRECTION('ref_axis',(1.,0.,0.));
#309=DIRECTION('center_axis',(0.,0.,1.));
#310=DIRECTION('ref_axis',(1.,0.,0.));
#311=DIRECTION('center_axis',(0.,0.,1.));
#312=DIRECTION('ref_axis',(-1.,0.,0.));
#313=DIRECTION('center_axis',(0.,0.,1.));
#314=DIRECTION('ref_axis',(-1.,0.,0.));
#315=DIRECTION('',(0.,0.,-1.));
#316=DIRECTION('center_axis',(0.,0.,1.));
#317=DIRECTION('ref_axis',(1.,0.,0.));
#318=DIRECTION('center_axis',(0.,0.,1.));
#319=DIRECTION('ref_axis',(1.,0.,0.));
#320=DIRECTION('center_axis',(0.,0.,-1.));
#321=DIRECTION('ref_axis',(-1.,0.,0.));
#322=DIRECTION('center_axis',(0.,0.,-1.));
#323=DIRECTION('ref_axis',(-1.,0.,0.));
#324=DIRECTION('',(0.707106781186547,8.65956056235493E-17,-0.707106781186547));
#325=DIRECTION('center_axis',(0.,0.,1.));
#326=DIRECTION('ref_axis',(1.,0.,0.));
#327=DIRECTION('center_axis',(0.,0.,1.));
#328=DIRECTION('ref_axis',(1.,0.,0.));
#329=DIRECTION('',(0.,0.,-1.));
#330=CARTESIAN_POINT('',(0.,0.,0.));
#331=CARTESIAN_POINT('Origin',(0.,0.,-2.07106781186548));
#332=CARTESIAN_POINT('',(-12.,-2.93915231795365E-15,-2.07106781186548));
#333=CARTESIAN_POINT('',(12.,-1.46957615897682E-15,-2.07106781186548));
#334=CARTESIAN_POINT('Origin',(0.,0.,-2.07106781186548));
#335=CARTESIAN_POINT('Origin',(0.,0.,-2.07106781186548));
#336=CARTESIAN_POINT('',(-13.4644660940673,-2.46519032881566E-31,1.46446609406726));
#337=CARTESIAN_POINT('Origin',(-17.,-2.0818995585505E-15,-2.07106781186548));
#338=CARTESIAN_POINT('',(13.4644660940673,1.64892153043275E-15,1.46446609406726));
#339=CARTESIAN_POINT('Origin',(0.,0.,1.46446609406726));
#340=CARTESIAN_POINT('Origin',(0.,0.,1.46446609406726));
#341=CARTESIAN_POINT('Origin',(0.,0.,0.));
#342=CARTESIAN_POINT('',(12.,-1.46957615897682E-15,-18.));
#343=CARTESIAN_POINT('Origin',(0.,0.,-18.));
#344=CARTESIAN_POINT('',(12.,-1.46957615897682E-15,0.));
#345=CARTESIAN_POINT('Origin',(0.,0.,4.));
#346=CARTESIAN_POINT('',(20.,-2.44929359829471E-15,8.));
#347=CARTESIAN_POINT('',(-20.,-2.44929359829471E-15,8.));
#348=CARTESIAN_POINT('Origin',(0.,0.,8.));
#349=CARTESIAN_POINT('Origin',(0.,0.,8.));
#350=CARTESIAN_POINT('',(16.,1.95943487863577E-15,4.));
#351=CARTESIAN_POINT('Origin',(0.,0.,-17.75));
#352=CARTESIAN_POINT('',(-8.75,1.07156594925393E-15,-18.));
#353=CARTESIAN_POINT('Origin',(0.,0.,-18.));
#354=CARTESIAN_POINT('',(-8.25,-1.01033360929657E-15,-17.5));
#355=CARTESIAN_POINT('',(-8.5,1.04094977927525E-15,-17.75));
#356=CARTESIAN_POINT('Origin',(0.,0.,-17.5));
#357=CARTESIAN_POINT('Origin',(0.,0.,-18.));
#358=CARTESIAN_POINT('Origin',(0.,0.,0.));
#359=CARTESIAN_POINT('',(-8.25,1.01033360929657E-15,0.));
#360=CARTESIAN_POINT('',(-8.25,1.01033360929657E-15,0.));
#361=CARTESIAN_POINT('Origin',(0.,0.,0.));
#362=CARTESIAN_POINT('Origin',(0.,0.,16.));
#363=CARTESIAN_POINT('',(-4.5,5.51091059616309E-16,16.));
#364=CARTESIAN_POINT('Origin',(0.,0.,16.));
#365=CARTESIAN_POINT('',(-4.5,5.51091059616309E-16,6.));
#366=CARTESIAN_POINT('',(-4.5,5.51091059616309E-16,16.));
#367=CARTESIAN_POINT('Origin',(0.,0.,6.));
#368=CARTESIAN_POINT('Origin',(0.,0.,6.));
#369=CARTESIAN_POINT('',(-2.6,-3.18408167778312E-16,6.));
#370=CARTESIAN_POINT('Origin',(0.,0.,6.));
#371=CARTESIAN_POINT('Origin',(0.,0.,0.));
#372=CARTESIAN_POINT('',(20.,2.44929359829471E-15,15.5));
#373=CARTESIAN_POINT('',(-20.,-2.44929359829471E-15,15.5));
#374=CARTESIAN_POINT('Origin',(0.,0.,15.5));
#375=CARTESIAN_POINT('Origin',(0.,0.,15.5));
#376=CARTESIAN_POINT('',(-20.,-2.44929359829471E-15,0.));
#377=CARTESIAN_POINT('Origin',(0.,0.,0.));
#378=CARTESIAN_POINT('',(-2.6,-3.18408167778312E-16,0.));
#379=CARTESIAN_POINT('Origin',(0.,0.,0.));
#380=CARTESIAN_POINT('Origin',(0.,0.,15.75));
#381=CARTESIAN_POINT('',(19.5,-2.38806125833734E-15,16.));
#382=CARTESIAN_POINT('Origin',(0.,0.,16.));
#383=CARTESIAN_POINT('',(19.75,2.41867742831602E-15,15.75));
#384=CARTESIAN_POINT('Origin',(0.,0.,16.));
#385=CARTESIAN_POINT('Origin',(0.,0.,-42.7877538267963));
#386=CARTESIAN_POINT('',(-2.6,-3.18408167778312E-16,-42.7877538267963));
#387=UNCERTAINTY_MEASURE_WITH_UNIT(LENGTH_MEASURE(0.01),#391,
'DISTANCE_ACCURACY_VALUE',
'Maximum model space distance between geometric entities at asserted c
onnectivities');
#388=UNCERTAINTY_MEASURE_WITH_UNIT(LENGTH_MEASURE(0.01),#391,
'DISTANCE_ACCURACY_VALUE',
'Maximum model space distance between geometric entities at asserted c
onnectivities');
#389=(
GEOMETRIC_REPRESENTATION_CONTEXT(3)
GLOBAL_UNCERTAINTY_ASSIGNED_CONTEXT((#387))
GLOBAL_UNIT_ASSIGNED_CONTEXT((#391,#393,#394))
REPRESENTATION_CONTEXT('','3D')
);
#390=(
GEOMETRIC_REPRESENTATION_CONTEXT(3)
GLOBAL_UNCERTAINTY_ASSIGNED_CONTEXT((#388))
GLOBAL_UNIT_ASSIGNED_CONTEXT((#391,#393,#394))
REPRESENTATION_CONTEXT('','3D')
);
#391=(
LENGTH_UNIT()
NAMED_UNIT(*)
SI_UNIT(.MILLI.,.METRE.)
);
#392=(
LENGTH_UNIT()
NAMED_UNIT(*)
SI_UNIT(.CENTI.,.METRE.)
);
#393=(
NAMED_UNIT(*)
PLANE_ANGLE_UNIT()
SI_UNIT($,.RADIAN.)
);
#394=(
NAMED_UNIT(*)
SI_UNIT($,.STERADIAN.)
SOLID_ANGLE_UNIT()
);
#395=SHAPE_DEFINITION_REPRESENTATION(#396,#397);
#396=PRODUCT_DEFINITION_SHAPE('',$,#399);
#397=SHAPE_REPRESENTATION('',(#226),#389);
#398=PRODUCT_DEFINITION_CONTEXT('part definition',#403,'design');
#399=PRODUCT_DEFINITION('F0329OB','F0329OB',#400,#398);
#400=PRODUCT_DEFINITION_FORMATION('',$,#405);
#401=PRODUCT_RELATED_PRODUCT_CATEGORY('F0329OB','F0329OB',(#405));
#402=APPLICATION_PROTOCOL_DEFINITION('international standard',
'automotive_design',2009,#403);
#403=APPLICATION_CONTEXT(
'Core Data for Automotive Mechanical Design Process');
#404=PRODUCT_CONTEXT('part definition',#403,'mechanical');
#405=PRODUCT('F0329OB','F0329OB',$,(#404));
#406=PRESENTATION_STYLE_ASSIGNMENT((#407));
#407=SURFACE_STYLE_USAGE(.BOTH.,#410);
#408=SURFACE_STYLE_RENDERING_WITH_PROPERTIES($,#414,(#409));
#409=SURFACE_STYLE_TRANSPARENT(0.);
#410=SURFACE_SIDE_STYLE('',(#411,#408));
#411=SURFACE_STYLE_FILL_AREA(#412);
#412=FILL_AREA_STYLE('',(#413));
#413=FILL_AREA_STYLE_COLOUR('',#414);
#414=COLOUR_RGB('',0.901960784313726,0.913725490196078,0.925490196078431);
ENDSEC;
END-ISO-10303-21;
