ISO-10303-21;
HEADER;
FILE_DESCRIPTION (( 'STEP AP203' ),
    '1' );
FILE_NAME ('ROV-USI-028A-RENFORT BAC.STEP',
    '2024-05-22T14:17:54',
    ( '' ),
    ( '' ),
    'SwSTEP 2.0',
    'SolidWorks 2016',
    '' );
FILE_SCHEMA (( 'CONFIG_CONTROL_DESIGN' ));
ENDSEC;

DATA;
#1 = ADVANCED_FACE ( 'NONE', ( #314 ), #128, .F. ) ;
#2 = PERSON_AND_ORGANIZATION_ROLE ( 'design_supplier' ) ;
#3 =( LENGTH_UNIT ( ) NAMED_UNIT ( * ) SI_UNIT ( .MILLI., .METRE. ) );
#4 = DIRECTION ( 'NONE',  ( 0.0000000000000000000, 0.0000000000000000000, 1.000000000000000000 ) ) ;
#5 = EDGE_CURVE ( 'NONE', #338, #286, #298, .T. ) ;
#6 = ADVANCED_FACE ( 'NONE', ( #25 ), #87, .F. ) ;
#7 = VECTOR ( 'NONE', #116, 1000.000000000000000 ) ;
#8 = ORIENTED_EDGE ( 'NONE', *, *, #5, .F. ) ;
#9 = DIRECTION ( 'NONE',  ( 1.000000000000000000, 0.0000000000000000000, 0.0000000000000000000 ) ) ;
#10 = ADVANCED_FACE ( 'NONE', ( #285 ), #220, .T. ) ;
#11 = CARTESIAN_POINT ( 'NONE',  ( 0.0000000000000000000, 0.0000000000000000000, -18.50000000000000400 ) ) ;
#12 = AXIS2_PLACEMENT_3D ( 'NONE', #140, #69, #258 ) ;
#13 = DATE_AND_TIME ( #24, #156 ) ;
#14 = CIRCLE ( 'NONE', #270, 1.649999999999989900 ) ;
#15 = LINE ( 'NONE', #105, #330 ) ;
#16 = ORIENTED_EDGE ( 'NONE', *, *, #340, .T. ) ;
#17 = AXIS2_PLACEMENT_3D ( 'NONE', #376, #214, #361 ) ;
#18 = CARTESIAN_POINT ( 'NONE',  ( -1.649999999999989900, 2.020667218593122600E-016, 30.00000000000000000 ) ) ;
#19 = AXIS2_PLACEMENT_3D ( 'NONE', #246, #275, #63 ) ;
#20 = COORDINATED_UNIVERSAL_TIME_OFFSET ( 1, 0, .AHEAD. ) ;
#21 = CYLINDRICAL_SURFACE ( 'NONE', #257, 1.649999999999993000 ) ;
#22 = CARTESIAN_POINT ( 'NONE',  ( -1.649999999999988400, 0.0000000000000000000, -18.50000000000000400 ) ) ;
#23 = AXIS2_PLACEMENT_3D ( 'NONE', #78, #207, #110 ) ;
#24 = CALENDAR_DATE ( 2024, 22, 5 ) ;
#25 = FACE_OUTER_BOUND ( 'NONE', #153, .T. ) ;
#26 = EDGE_LOOP ( 'NONE', ( #273, #254, #47, #172 ) ) ;
#27 = AXIS2_PLACEMENT_3D ( 'NONE', #28, #112, #83 ) ;
#28 = CARTESIAN_POINT ( 'NONE',  ( 0.0000000000000000000, 0.0000000000000000000, -30.00000000000000000 ) ) ;
#29 = SECURITY_CLASSIFICATION_LEVEL ( 'unclassified' ) ;
#30 = CARTESIAN_POINT ( 'NONE',  ( 0.0000000000000000000, 0.0000000000000000000, -18.50000000000000400 ) ) ;
#31 = DIRECTION ( 'NONE',  ( -0.0000000000000000000, -0.0000000000000000000, -1.000000000000000000 ) ) ;
#32 = ORIENTED_EDGE ( 'NONE', *, *, #188, .T. ) ;
#33 = DIRECTION ( 'NONE',  ( -0.0000000000000000000, -0.0000000000000000000, 1.000000000000000000 ) ) ;
#34 = AXIS2_PLACEMENT_3D ( 'NONE', #124, #152, #240 ) ;
#35 = LOCAL_TIME ( 16, 17, 54.00000000000000000, #135 ) ;
#36 = CIRCLE ( 'NONE', #293, 1.649999999999989900 ) ;
#37 = CARTESIAN_POINT ( 'NONE',  ( -1.649999999999993000, 2.020667218593124400E-016, 30.00000000000000000 ) ) ;
#38 = ORIENTED_EDGE ( 'NONE', *, *, #302, .F. ) ;
#39 = CARTESIAN_POINT ( 'NONE',  ( 0.0000000000000000000, 0.0000000000000000000, 30.00000000000000000 ) ) ;
#40 = ORIENTED_EDGE ( 'NONE', *, *, #310, .F. ) ;
#41 = CC_DESIGN_PERSON_AND_ORGANIZATION_ASSIGNMENT ( #169, #363, ( #289 ) ) ;
#42 = CARTESIAN_POINT ( 'NONE',  ( 0.0000000000000000000, 0.0000000000000000000, -30.00000000000000000 ) ) ;
#43 = DIRECTION ( 'NONE',  ( -0.0000000000000000000, -0.0000000000000000000, 1.000000000000000000 ) ) ;
#44 = DIRECTION ( 'NONE',  ( -0.0000000000000000000, -0.0000000000000000000, -1.000000000000000000 ) ) ;
#45 = APPROVAL_DATE_TIME ( #147, #146 ) ;
#46 = CARTESIAN_POINT ( 'NONE',  ( 1.649999999999996100, 0.0000000000000000000, 18.50000000000000000 ) ) ;
#47 = ORIENTED_EDGE ( 'NONE', *, *, #283, .T. ) ;
#48 = DIRECTION ( 'NONE',  ( -0.0000000000000000000, -0.0000000000000000000, -1.000000000000000000 ) ) ;
#49 = AXIS2_PLACEMENT_3D ( 'NONE', #261, #4, #149 ) ;
#50 = ORIENTED_EDGE ( 'NONE', *, *, #162, .F. ) ;
#51 = CARTESIAN_POINT ( 'NONE',  ( 0.0000000000000000000, 0.0000000000000000000, -18.50000000000000400 ) ) ;
#52 = APPROVAL_PERSON_ORGANIZATION ( #233, #165, #305 ) ;
#53 = CIRCLE ( 'NONE', #281, 1.649999999999996100 ) ;
#54 = ORIENTED_EDGE ( 'NONE', *, *, #248, .F. ) ;
#55 = DATE_TIME_ROLE ( 'classification_date' ) ;
#56 = DIRECTION ( 'NONE',  ( 1.000000000000000000, 0.0000000000000000000, -0.0000000000000000000 ) ) ;
#57 = APPLICATION_PROTOCOL_DEFINITION ( 'international standard', 'config_control_design', 1994, #210 ) ;
#58 = CARTESIAN_POINT ( 'NONE',  ( 0.0000000000000000000, 0.0000000000000000000, 30.00000000000000000 ) ) ;
#59 = CIRCLE ( 'NONE', #177, 1.649999999999989900 ) ;
#60 = ORIENTED_EDGE ( 'NONE', *, *, #322, .F. ) ;
#61 = DIRECTION ( 'NONE',  ( -1.000000000000000000, 0.0000000000000000000, 0.0000000000000000000 ) ) ;
#62 = ADVANCED_FACE ( 'NONE', ( #357 ), #66, .T. ) ;
#63 = DIRECTION ( 'NONE',  ( -1.000000000000000000, 0.0000000000000000000, 0.0000000000000000000 ) ) ;
#64 = AXIS2_PLACEMENT_3D ( 'NONE', #58, #277, #61 ) ;
#65 = EDGE_LOOP ( 'NONE', ( #40, #99, #199 ) ) ;
#66 = CYLINDRICAL_SURFACE ( 'NONE', #306, 4.000000000000000000 ) ;
#67 = VERTEX_POINT ( 'NONE', #318 ) ;
#68 = SECURITY_CLASSIFICATION ( '', '', #29 ) ;
#69 = DIRECTION ( 'NONE',  ( 0.0000000000000000000, 0.0000000000000000000, 1.000000000000000000 ) ) ;
#70 = DIRECTION ( 'NONE',  ( -0.0000000000000000000, -0.0000000000000000000, 1.000000000000000000 ) ) ;
#71 = PERSON_AND_ORGANIZATION ( #206, #290 ) ;
#72 = FACE_OUTER_BOUND ( 'NONE', #109, .T. ) ;
#73 = ORIENTED_EDGE ( 'NONE', *, *, #202, .F. ) ;
#74 = CARTESIAN_POINT ( 'NONE',  ( -1.649999999999989900, 0.0000000000000000000, -30.00000000000000000 ) ) ;
#75 = EDGE_CURVE ( 'NONE', #266, #154, #36, .T. ) ;
#76 = VECTOR ( 'NONE', #145, 1000.000000000000000 ) ;
#77 = VERTEX_POINT ( 'NONE', #163 ) ;
#78 = CARTESIAN_POINT ( 'NONE',  ( 0.0000000000000000000, 0.0000000000000000000, 30.00000000000000000 ) ) ;
#79 = DIRECTION ( 'NONE',  ( -1.000000000000000000, 0.0000000000000000000, 0.0000000000000000000 ) ) ;
#80 = DIRECTION ( 'NONE',  ( -0.0000000000000000000, -0.0000000000000000000, 1.000000000000000000 ) ) ;
#81 = CC_DESIGN_DATE_AND_TIME_ASSIGNMENT ( #13, #274, ( #289 ) ) ;
#82 = FACE_BOUND ( 'NONE', #138, .T. ) ;
#83 = DIRECTION ( 'NONE',  ( -1.000000000000000000, 0.0000000000000000000, 0.0000000000000000000 ) ) ;
#84 = APPROVAL_STATUS ( 'not_yet_approved' ) ;
#85 = APPROVAL_STATUS ( 'not_yet_approved' ) ;
#86 = PERSON_AND_ORGANIZATION ( #206, #290 ) ;
#87 = CYLINDRICAL_SURFACE ( 'NONE', #19, 1.649999999999989300 ) ;
#88 = DIRECTION ( 'NONE',  ( 0.0000000000000000000, 0.0000000000000000000, 1.000000000000000000 ) ) ;
#89 = ORIENTED_EDGE ( 'NONE', *, *, #350, .F. ) ;
#90 = CARTESIAN_POINT ( 'NONE',  ( 0.0000000000000000000, 0.0000000000000000000, 30.00000000000000000 ) ) ;
#91 = APPLICATION_PROTOCOL_DEFINITION ( 'international standard', 'config_control_design', 1994, #238 ) ;
#92 = APPROVAL_DATE_TIME ( #107, #95 ) ;
#93 = CIRCLE ( 'NONE', #49, 4.000000000000000000 ) ;
#94 = DIRECTION ( 'NONE',  ( -0.0000000000000000000, -0.0000000000000000000, 1.000000000000000000 ) ) ;
#95 = APPROVAL ( #335, 'UNSPECIFIED' ) ;
#96 = CIRCLE ( 'NONE', #232, 1.649999999999996100 ) ;
#97 = ORIENTED_EDGE ( 'NONE', *, *, #5, .T. ) ;
#98 = PRODUCT_DEFINITION_SHAPE ( 'NONE', 'NONE',  #289 ) ;
#99 = ORIENTED_EDGE ( 'NONE', *, *, #302, .T. ) ;
#100 = EDGE_CURVE ( 'NONE', #291, #309, #259, .T. ) ;
#101 = COORDINATED_UNIVERSAL_TIME_OFFSET ( 1, 0, .AHEAD. ) ;
#102 = CARTESIAN_POINT ( 'NONE',  ( -3.059515509201426700E-015, 0.0000000000000000000, -17.50857997860452300 ) ) ;
#103 = ORIENTED_EDGE ( 'NONE', *, *, #100, .F. ) ;
#104 =( GEOMETRIC_REPRESENTATION_CONTEXT ( 3 ) GLOBAL_UNCERTAINTY_ASSIGNED_CONTEXT ( ( #379 ) ) GLOBAL_UNIT_ASSIGNED_CONTEXT ( ( #3, #212, #235 ) ) REPRESENTATION_CONTEXT ( 'NONE', 'WORKASPACE' ) );
#105 = CARTESIAN_POINT ( 'NONE',  ( -1.649999999999996100, 2.020667218593128100E-016, 18.50000000000000000 ) ) ;
#106 = DIRECTION ( 'NONE',  ( 1.000000000000000000, 0.0000000000000000000, 0.0000000000000000000 ) ) ;
#107 = DATE_AND_TIME ( #190, #312 ) ;
#108 = VECTOR ( 'NONE', #196, 1000.000000000000000 ) ;
#109 = EDGE_LOOP ( 'NONE', ( #38, #191, #334 ) ) ;
#110 = DIRECTION ( 'NONE',  ( 1.000000000000000000, 0.0000000000000000000, 0.0000000000000000000 ) ) ;
#111 = AXIS2_PLACEMENT_3D ( 'NONE', #117, #88, #354 ) ;
#112 = DIRECTION ( 'NONE',  ( -0.0000000000000000000, -0.0000000000000000000, -1.000000000000000000 ) ) ;
#113 = ORIENTED_EDGE ( 'NONE', *, *, #162, .T. ) ;
#114 = CARTESIAN_POINT ( 'NONE',  ( 1.649999999999989900, 0.0000000000000000000, 30.00000000000000000 ) ) ;
#115 = DIRECTION ( 'NONE',  ( 1.000000000000000000, 0.0000000000000000000, 0.0000000000000000000 ) ) ;
#116 = DIRECTION ( 'NONE',  ( -0.0000000000000000000, -0.0000000000000000000, -1.000000000000000000 ) ) ;
#117 = CARTESIAN_POINT ( 'NONE',  ( 0.0000000000000000000, 0.0000000000000000000, -30.00000000000000000 ) ) ;
#118 = CC_DESIGN_PERSON_AND_ORGANIZATION_ASSIGNMENT ( #127, #2, ( #200 ) ) ;
#119 = VECTOR ( 'NONE', #296, 999.9999999999998900 ) ;
#120 = DIRECTION ( 'NONE',  ( -0.0000000000000000000, -0.0000000000000000000, -1.000000000000000000 ) ) ;
#121 = ORIENTED_EDGE ( 'NONE', *, *, #188, .F. ) ;
#122 = EDGE_CURVE ( 'NONE', #344, #125, #178, .T. ) ;
#123 = ADVANCED_FACE ( 'NONE', ( #72 ), #377, .F. ) ;
#124 = CARTESIAN_POINT ( 'NONE',  ( 0.0000000000000000000, 0.0000000000000000000, 0.0000000000000000000 ) ) ;
#125 = VERTEX_POINT ( 'NONE', #114 ) ;
#126 = CC_DESIGN_APPROVAL ( #95, ( #289 ) ) ;
#127 = PERSON_AND_ORGANIZATION ( #206, #290 ) ;
#128 = CONICAL_SURFACE ( 'NONE', #224, 1.649999999999988400, 1.029744258676648500 ) ;
#129 = ORIENTED_EDGE ( 'NONE', *, *, #245, .T. ) ;
#130 = DIRECTION ( 'NONE',  ( 0.0000000000000000000, 0.0000000000000000000, 1.000000000000000000 ) ) ;
#131 = LINE ( 'NONE', #327, #226 ) ;
#132 = EDGE_LOOP ( 'NONE', ( #89, #32, #299, #211 ) ) ;
#133 = CC_DESIGN_PERSON_AND_ORGANIZATION_ASSIGNMENT ( #203, #355, ( #268 ) ) ;
#134 = CARTESIAN_POINT ( 'NONE',  ( 1.649999999999988400, 2.020667218593118500E-016, -18.50000000000000400 ) ) ;
#135 = COORDINATED_UNIVERSAL_TIME_OFFSET ( 1, 0, .AHEAD. ) ;
#136 = DIRECTION ( 'NONE',  ( -0.0000000000000000000, -0.0000000000000000000, 1.000000000000000000 ) ) ;
#137 = CONICAL_SURFACE ( 'NONE', #158, 1.649999999999996100, 1.029744258676652300 ) ;
#138 = EDGE_LOOP ( 'NONE', ( #279, #180 ) ) ;
#139 = CC_DESIGN_PERSON_AND_ORGANIZATION_ASSIGNMENT ( #219, #185, ( #68 ) ) ;
#140 = CARTESIAN_POINT ( 'NONE',  ( 0.0000000000000000000, 0.0000000000000000000, -30.00000000000000000 ) ) ;
#141 = EDGE_CURVE ( 'NONE', #338, #77, #131, .T. ) ;
#142 = CIRCLE ( 'NONE', #294, 1.649999999999988400 ) ;
#143 = EDGE_LOOP ( 'NONE', ( #372, #370, #113 ) ) ;
#144 = CARTESIAN_POINT ( 'NONE',  ( 0.0000000000000000000, 0.0000000000000000000, -30.00000000000000000 ) ) ;
#145 = DIRECTION ( 'NONE',  ( -0.0000000000000000000, -0.0000000000000000000, 1.000000000000000000 ) ) ;
#146 = APPROVAL ( #85, 'UNSPECIFIED' ) ;
#147 = DATE_AND_TIME ( #278, #225 ) ;
#148 = FACE_OUTER_BOUND ( 'NONE', #217, .T. ) ;
#149 = DIRECTION ( 'NONE',  ( 1.000000000000000000, 0.0000000000000000000, 0.0000000000000000000 ) ) ;
#150 = CARTESIAN_POINT ( 'NONE',  ( -1.649999999999989300, 0.0000000000000000000, -30.00000000000000000 ) ) ;
#151 = ADVANCED_FACE ( 'NONE', ( #348 ), #382, .F. ) ;
#152 = DIRECTION ( 'NONE',  ( 0.0000000000000000000, 0.0000000000000000000, 1.000000000000000000 ) ) ;
#153 = EDGE_LOOP ( 'NONE', ( #121, #50, #229, #321 ) ) ;
#154 = VERTEX_POINT ( 'NONE', #74 ) ;
#155 = CARTESIAN_POINT ( 'NONE',  ( 4.000000000000000000, 4.898587196589412800E-016, 30.00000000000000000 ) ) ;
#156 = LOCAL_TIME ( 16, 17, 54.00000000000000000, #20 ) ;
#157 = FACE_OUTER_BOUND ( 'NONE', #143, .T. ) ;
#158 = AXIS2_PLACEMENT_3D ( 'NONE', #244, #33, #189 ) ;
#159 = LINE ( 'NONE', #317, #108 ) ;
#160 = EDGE_CURVE ( 'NONE', #286, #338, #93, .T. ) ;
#161 = ORIENTED_EDGE ( 'NONE', *, *, #122, .T. ) ;
#162 = EDGE_CURVE ( 'NONE', #309, #243, #142, .T. ) ;
#163 = CARTESIAN_POINT ( 'NONE',  ( -4.000000000000000000, 0.0000000000000000000, -30.00000000000000000 ) ) ;
#164 = DATE_AND_TIME ( #336, #35 ) ;
#165 = APPROVAL ( #84, 'UNSPECIFIED' ) ;
#166 = CARTESIAN_POINT ( 'NONE',  ( -1.649999999999988400, 0.0000000000000000000, -18.50000000000000400 ) ) ;
#167 = CARTESIAN_POINT ( 'NONE',  ( -4.000000000000000000, 0.0000000000000000000, 30.00000000000000000 ) ) ;
#168 = CARTESIAN_POINT ( 'NONE',  ( 4.000000000000000000, 4.898587196589412800E-016, -30.00000000000000000 ) ) ;
#169 = PERSON_AND_ORGANIZATION ( #206, #290 ) ;
#170 = DESIGN_CONTEXT ( 'detailed design', #238, 'design' ) ;
#171 = FACE_OUTER_BOUND ( 'NONE', #65, .T. ) ;
#172 = ORIENTED_EDGE ( 'NONE', *, *, #141, .F. ) ;
#173 = ORIENTED_EDGE ( 'NONE', *, *, #350, .T. ) ;
#174 = CARTESIAN_POINT ( 'NONE',  ( 0.0000000000000000000, 0.0000000000000000000, 18.50000000000000000 ) ) ;
#175 = ORIENTED_EDGE ( 'NONE', *, *, #160, .T. ) ;
#176 = PERSON_AND_ORGANIZATION_ROLE ( 'creator' ) ;
#177 = AXIS2_PLACEMENT_3D ( 'NONE', #324, #136, #106 ) ;
#178 = LINE ( 'NONE', #231, #76 ) ;
#179 = DIRECTION ( 'NONE',  ( 0.0000000000000000000, 0.0000000000000000000, 1.000000000000000000 ) ) ;
#180 = ORIENTED_EDGE ( 'NONE', *, *, #332, .F. ) ;
#181 = ADVANCED_FACE ( 'NONE', ( #82, #308 ), #201, .T. ) ;
#182 = ORIENTED_EDGE ( 'NONE', *, *, #371, .F. ) ;
#183 = MECHANICAL_CONTEXT ( 'NONE', #210, 'mechanical' ) ;
#184 = EDGE_CURVE ( 'NONE', #309, #154, #253, .T. ) ;
#185 = PERSON_AND_ORGANIZATION_ROLE ( 'classification_officer' ) ;
#186 = ADVANCED_FACE ( 'NONE', ( #198, #333 ), #301, .F. ) ;
#187 = APPROVAL_ROLE ( '' ) ;
#188 = EDGE_CURVE ( 'NONE', #243, #266, #341, .T. ) ;
#189 = DIRECTION ( 'NONE',  ( 1.000000000000000000, 0.0000000000000000000, 0.0000000000000000000 ) ) ;
#190 = CALENDAR_DATE ( 2024, 22, 5 ) ;
#191 = ORIENTED_EDGE ( 'NONE', *, *, #310, .T. ) ;
#192 = CC_DESIGN_SECURITY_CLASSIFICATION ( #68, ( #200 ) ) ;
#193 = LINE ( 'NONE', #328, #375 ) ;
#194 = VERTEX_POINT ( 'NONE', #168 ) ;
#195 = ORIENTED_EDGE ( 'NONE', *, *, #75, .F. ) ;
#196 = DIRECTION ( 'NONE',  ( 0.8571673007021112200, 0.0000000000000000000, 0.5150380749100560400 ) ) ;
#197 = APPROVAL_DATE_TIME ( #284, #165 ) ;
#198 = FACE_BOUND ( 'NONE', #358, .T. ) ;
#199 = ORIENTED_EDGE ( 'NONE', *, *, #204, .T. ) ;
#200 = PRODUCT_DEFINITION_FORMATION_WITH_SPECIFIED_SOURCE ( 'ANY', '', #268, .NOT_KNOWN. ) ;
#201 = PLANE ( 'NONE',  #300 ) ;
#202 = EDGE_CURVE ( 'NONE', #286, #194, #369, .T. ) ;
#203 = PERSON_AND_ORGANIZATION ( #206, #290 ) ;
#204 = EDGE_CURVE ( 'NONE', #344, #349, #96, .T. ) ;
#205 = EDGE_LOOP ( 'NONE', ( #103, #16, #173 ) ) ;
#206 = PERSON ( 'UNSPECIFIED', 'UNSPECIFIED', 'UNSPECIFIED', ('UNSPECIFIED'), ('UNSPECIFIED'), ('UNSPECIFIED') ) ;
#207 = DIRECTION ( 'NONE',  ( -0.0000000000000000000, -0.0000000000000000000, 1.000000000000000000 ) ) ;
#208 = ADVANCED_FACE ( 'NONE', ( #171 ), #137, .F. ) ;
#209 = CYLINDRICAL_SURFACE ( 'NONE', #27, 1.649999999999989300 ) ;
#210 = APPLICATION_CONTEXT ( 'configuration controlled 3d designs of mechanical parts and assemblies' ) ;
#211 = ORIENTED_EDGE ( 'NONE', *, *, #184, .F. ) ;
#212 =( NAMED_UNIT ( * ) PLANE_ANGLE_UNIT ( ) SI_UNIT ( $, .RADIAN. ) );
#213 = DIRECTION ( 'NONE',  ( -0.0000000000000000000, -0.0000000000000000000, -1.000000000000000000 ) ) ;
#214 = DIRECTION ( 'NONE',  ( -0.0000000000000000000, -0.0000000000000000000, -1.000000000000000000 ) ) ;
#215 = CIRCLE ( 'NONE', #12, 4.000000000000000000 ) ;
#216 = CARTESIAN_POINT ( 'NONE',  ( 0.0000000000000000000, 0.0000000000000000000, 18.50000000000000000 ) ) ;
#217 = EDGE_LOOP ( 'NONE', ( #182, #364, #223, #353 ) ) ;
#218 = MANIFOLD_SOLID_BREP ( 'Trou taraudé M42', #230 ) ;
#219 = PERSON_AND_ORGANIZATION ( #206, #290 ) ;
#220 = CYLINDRICAL_SURFACE ( 'NONE', #64, 4.000000000000000000 ) ;
#221 = CC_DESIGN_PERSON_AND_ORGANIZATION_ASSIGNMENT ( #86, #176, ( #200 ) ) ;
#222 = VERTEX_POINT ( 'NONE', #18 ) ;
#223 = ORIENTED_EDGE ( 'NONE', *, *, #332, .T. ) ;
#224 = AXIS2_PLACEMENT_3D ( 'NONE', #11, #311, #367 ) ;
#225 = LOCAL_TIME ( 16, 17, 54.00000000000000000, #252 ) ;
#226 = VECTOR ( 'NONE', #48, 1000.000000000000000 ) ;
#227 = CARTESIAN_POINT ( 'NONE',  ( 0.0000000000000000000, 0.0000000000000000000, 30.00000000000000000 ) ) ;
#228 = VECTOR ( 'NONE', #31, 1000.000000000000000 ) ;
#229 = ORIENTED_EDGE ( 'NONE', *, *, #184, .T. ) ;
#230 = CLOSED_SHELL ( 'NONE', ( #360, #1, #276, #123, #62, #10, #181, #186, #208, #151, #365, #6 ) ) ;
#231 = CARTESIAN_POINT ( 'NONE',  ( 1.649999999999993000, 0.0000000000000000000, 30.00000000000000000 ) ) ;
#232 = AXIS2_PLACEMENT_3D ( 'NONE', #216, #94, #288 ) ;
#233 = PERSON_AND_ORGANIZATION ( #206, #290 ) ;
#234 = CIRCLE ( 'NONE', #313, 1.649999999999989900 ) ;
#235 =( NAMED_UNIT ( * ) SI_UNIT ( $, .STERADIAN. ) SOLID_ANGLE_UNIT ( ) );
#236 = ADVANCED_BREP_SHAPE_REPRESENTATION ( 'ROV-USI-028A-RENFORT BAC', ( #218, #34 ), #104 ) ;
#237 = CARTESIAN_POINT ( 'NONE',  ( 0.0000000000000000000, 0.0000000000000000000, 30.00000000000000000 ) ) ;
#238 = APPLICATION_CONTEXT ( 'configuration controlled 3d designs of mechanical parts and assemblies' ) ;
#239 = CC_DESIGN_APPROVAL ( #165, ( #68 ) ) ;
#240 = DIRECTION ( 'NONE',  ( 1.000000000000000000, 0.0000000000000000000, 0.0000000000000000000 ) ) ;
#241 = LINE ( 'NONE', #37, #272 ) ;
#242 = CARTESIAN_POINT ( 'NONE',  ( 0.0000000000000000000, 0.0000000000000000000, 18.50000000000000000 ) ) ;
#243 = VERTEX_POINT ( 'NONE', #134 ) ;
#244 = CARTESIAN_POINT ( 'NONE',  ( 0.0000000000000000000, 0.0000000000000000000, 18.50000000000000000 ) ) ;
#245 = EDGE_CURVE ( 'NONE', #77, #194, #325, .T. ) ;
#246 = CARTESIAN_POINT ( 'NONE',  ( 0.0000000000000000000, 0.0000000000000000000, -30.00000000000000000 ) ) ;
#247 = DIRECTION ( 'NONE',  ( 1.000000000000000000, 0.0000000000000000000, 0.0000000000000000000 ) ) ;
#248 = EDGE_CURVE ( 'NONE', #349, #222, #241, .T. ) ;
#249 = PERSON_AND_ORGANIZATION ( #206, #290 ) ;
#250 = CIRCLE ( 'NONE', #17, 1.649999999999988400 ) ;
#251 = CARTESIAN_POINT ( 'NONE',  ( 0.0000000000000000000, 0.0000000000000000000, -30.00000000000000000 ) ) ;
#252 = COORDINATED_UNIVERSAL_TIME_OFFSET ( 1, 0, .AHEAD. ) ;
#253 = LINE ( 'NONE', #150, #7 ) ;
#254 = ORIENTED_EDGE ( 'NONE', *, *, #202, .T. ) ;
#255 = AXIS2_PLACEMENT_3D ( 'NONE', #30, #120, #271 ) ;
#256 = ORIENTED_EDGE ( 'NONE', *, *, #283, .F. ) ;
#257 = AXIS2_PLACEMENT_3D ( 'NONE', #227, #43, #319 ) ;
#258 = DIRECTION ( 'NONE',  ( 1.000000000000000000, 0.0000000000000000000, 0.0000000000000000000 ) ) ;
#259 = LINE ( 'NONE', #166, #119 ) ;
#260 = ORIENTED_EDGE ( 'NONE', *, *, #262, .T. ) ;
#261 = CARTESIAN_POINT ( 'NONE',  ( 0.0000000000000000000, 0.0000000000000000000, 30.00000000000000000 ) ) ;
#262 = EDGE_CURVE ( 'NONE', #125, #222, #59, .T. ) ;
#263 = DIRECTION ( 'NONE',  ( -0.0000000000000000000, -0.0000000000000000000, -1.000000000000000000 ) ) ;
#264 = DIRECTION ( 'NONE',  ( 1.000000000000000000, 0.0000000000000000000, 0.0000000000000000000 ) ) ;
#265 = AXIS2_PLACEMENT_3D ( 'NONE', #90, #362, #9 ) ;
#266 = VERTEX_POINT ( 'NONE', #316 ) ;
#267 = CARTESIAN_POINT ( 'NONE',  ( 0.0000000000000000000, 0.0000000000000000000, 30.00000000000000000 ) ) ;
#268 = PRODUCT ( 'ROV-USI-028A-RENFORT BAC', 'ROV-USI-028A-RENFORT BAC', '', ( #183 ) ) ;
#269 = DIRECTION ( 'NONE',  ( 0.8571673007021092200, 1.049727191138615000E-016, -0.5150380749100592600 ) ) ;
#270 = AXIS2_PLACEMENT_3D ( 'NONE', #144, #263, #79 ) ;
#271 = DIRECTION ( 'NONE',  ( -1.000000000000000000, 0.0000000000000000000, 0.0000000000000000000 ) ) ;
#272 = VECTOR ( 'NONE', #70, 1000.000000000000000 ) ;
#273 = ORIENTED_EDGE ( 'NONE', *, *, #160, .F. ) ;
#274 = DATE_TIME_ROLE ( 'creation_date' ) ;
#275 = DIRECTION ( 'NONE',  ( -0.0000000000000000000, -0.0000000000000000000, -1.000000000000000000 ) ) ;
#276 = ADVANCED_FACE ( 'NONE', ( #148 ), #21, .F. ) ;
#277 = DIRECTION ( 'NONE',  ( -0.0000000000000000000, -0.0000000000000000000, -1.000000000000000000 ) ) ;
#278 = CALENDAR_DATE ( 2024, 22, 5 ) ;
#279 = ORIENTED_EDGE ( 'NONE', *, *, #262, .F. ) ;
#280 = EDGE_LOOP ( 'NONE', ( #326, #256 ) ) ;
#281 = AXIS2_PLACEMENT_3D ( 'NONE', #242, #359, #247 ) ;
#282 = DIRECTION ( 'NONE',  ( -0.0000000000000000000, -0.0000000000000000000, -1.000000000000000000 ) ) ;
#283 = EDGE_CURVE ( 'NONE', #194, #77, #215, .T. ) ;
#284 = DATE_AND_TIME ( #356, #295 ) ;
#285 = FACE_OUTER_BOUND ( 'NONE', #343, .T. ) ;
#286 = VERTEX_POINT ( 'NONE', #351 ) ;
#287 = CC_DESIGN_DATE_AND_TIME_ASSIGNMENT ( #164, #55, ( #68 ) ) ;
#288 = DIRECTION ( 'NONE',  ( 1.000000000000000000, 0.0000000000000000000, 0.0000000000000000000 ) ) ;
#289 = PRODUCT_DEFINITION ( 'UNKNOWN', '', #200, #170 ) ;
#290 = ORGANIZATION ( 'UNSPECIFIED', 'UNSPECIFIED', '' ) ;
#291 = VERTEX_POINT ( 'NONE', #102 ) ;
#292 = DIRECTION ( 'NONE',  ( -1.000000000000000000, 0.0000000000000000000, 0.0000000000000000000 ) ) ;
#293 = AXIS2_PLACEMENT_3D ( 'NONE', #42, #373, #323 ) ;
#294 = AXIS2_PLACEMENT_3D ( 'NONE', #51, #213, #304 ) ;
#295 = LOCAL_TIME ( 16, 17, 54.00000000000000000, #368 ) ;
#296 = DIRECTION ( 'NONE',  ( -0.8571673007021092200, 0.0000000000000000000, -0.5150380749100592600 ) ) ;
#297 = EDGE_LOOP ( 'NONE', ( #54, #378, #161, #260 ) ) ;
#298 = CIRCLE ( 'NONE', #265, 4.000000000000000000 ) ;
#299 = ORIENTED_EDGE ( 'NONE', *, *, #75, .T. ) ;
#300 = AXIS2_PLACEMENT_3D ( 'NONE', #237, #179, #56 ) ;
#301 = PLANE ( 'NONE',  #111 ) ;
#302 = EDGE_CURVE ( 'NONE', #67, #344, #159, .T. ) ;
#303 = FACE_OUTER_BOUND ( 'NONE', #132, .T. ) ;
#304 = DIRECTION ( 'NONE',  ( -1.000000000000000000, 0.0000000000000000000, 0.0000000000000000000 ) ) ;
#305 = APPROVAL_ROLE ( '' ) ;
#306 = AXIS2_PLACEMENT_3D ( 'NONE', #39, #44, #292 ) ;
#307 = APPROVAL_ROLE ( '' ) ;
#308 = FACE_OUTER_BOUND ( 'NONE', #315, .T. ) ;
#309 = VERTEX_POINT ( 'NONE', #22 ) ;
#310 = EDGE_CURVE ( 'NONE', #67, #349, #15, .T. ) ;
#311 = DIRECTION ( 'NONE',  ( -0.0000000000000000000, -0.0000000000000000000, -1.000000000000000000 ) ) ;
#312 = LOCAL_TIME ( 16, 17, 54.00000000000000000, #101 ) ;
#313 = AXIS2_PLACEMENT_3D ( 'NONE', #267, #80, #115 ) ;
#314 = FACE_OUTER_BOUND ( 'NONE', #205, .T. ) ;
#315 = EDGE_LOOP ( 'NONE', ( #97, #175 ) ) ;
#316 = CARTESIAN_POINT ( 'NONE',  ( 1.649999999999989700, 2.020667218593120400E-016, -30.00000000000000000 ) ) ;
#317 = CARTESIAN_POINT ( 'NONE',  ( 1.649999999999996100, 0.0000000000000000000, 18.50000000000000000 ) ) ;
#318 = CARTESIAN_POINT ( 'NONE',  ( -3.059515509201426700E-015, 0.0000000000000000000, 17.50857997860452300 ) ) ;
#319 = DIRECTION ( 'NONE',  ( 1.000000000000000000, 0.0000000000000000000, 0.0000000000000000000 ) ) ;
#320 = VECTOR ( 'NONE', #282, 1000.000000000000000 ) ;
#321 = ORIENTED_EDGE ( 'NONE', *, *, #322, .T. ) ;
#322 = EDGE_CURVE ( 'NONE', #154, #266, #14, .T. ) ;
#323 = DIRECTION ( 'NONE',  ( -1.000000000000000000, 0.0000000000000000000, 0.0000000000000000000 ) ) ;
#324 = CARTESIAN_POINT ( 'NONE',  ( 0.0000000000000000000, 0.0000000000000000000, 30.00000000000000000 ) ) ;
#325 = CIRCLE ( 'NONE', #337, 4.000000000000000000 ) ;
#326 = ORIENTED_EDGE ( 'NONE', *, *, #245, .F. ) ;
#327 = CARTESIAN_POINT ( 'NONE',  ( -4.000000000000000000, 0.0000000000000000000, 30.00000000000000000 ) ) ;
#328 = CARTESIAN_POINT ( 'NONE',  ( 1.649999999999988400, 2.020667218593118500E-016, -18.50000000000000400 ) ) ;
#329 = CONICAL_SURFACE ( 'NONE', #255, 1.649999999999988400, 1.029744258676648500 ) ;
#330 = VECTOR ( 'NONE', #346, 1000.000000000000000 ) ;
#331 = CC_DESIGN_APPROVAL ( #146, ( #200 ) ) ;
#332 = EDGE_CURVE ( 'NONE', #222, #125, #234, .T. ) ;
#333 = FACE_OUTER_BOUND ( 'NONE', #280, .T. ) ;
#334 = ORIENTED_EDGE ( 'NONE', *, *, #371, .T. ) ;
#335 = APPROVAL_STATUS ( 'not_yet_approved' ) ;
#336 = CALENDAR_DATE ( 2024, 22, 5 ) ;
#337 = AXIS2_PLACEMENT_3D ( 'NONE', #251, #130, #342 ) ;
#338 = VERTEX_POINT ( 'NONE', #167 ) ;
#339 = CARTESIAN_POINT ( 'NONE',  ( 1.649999999999989300, 2.020667218593119400E-016, -30.00000000000000000 ) ) ;
#340 = EDGE_CURVE ( 'NONE', #291, #243, #193, .T. ) ;
#341 = LINE ( 'NONE', #339, #320 ) ;
#342 = DIRECTION ( 'NONE',  ( 1.000000000000000000, 0.0000000000000000000, 0.0000000000000000000 ) ) ;
#343 = EDGE_LOOP ( 'NONE', ( #73, #8, #383, #129 ) ) ;
#344 = VERTEX_POINT ( 'NONE', #46 ) ;
#345 = PRODUCT_RELATED_PRODUCT_CATEGORY ( 'detail', '', ( #268 ) ) ;
#346 = DIRECTION ( 'NONE',  ( -0.8571673007021112200, 1.049727191138617300E-016, 0.5150380749100560400 ) ) ;
#347 = SHAPE_DEFINITION_REPRESENTATION ( #98, #236 ) ;
#348 = FACE_OUTER_BOUND ( 'NONE', #297, .T. ) ;
#349 = VERTEX_POINT ( 'NONE', #380 ) ;
#350 = EDGE_CURVE ( 'NONE', #243, #309, #250, .T. ) ;
#351 = CARTESIAN_POINT ( 'NONE',  ( 4.000000000000000000, 4.898587196589412800E-016, 30.00000000000000000 ) ) ;
#352 = DIRECTION ( 'NONE',  ( -0.0000000000000000000, -0.0000000000000000000, 1.000000000000000000 ) ) ;
#353 = ORIENTED_EDGE ( 'NONE', *, *, #122, .F. ) ;
#354 = DIRECTION ( 'NONE',  ( 1.000000000000000000, 0.0000000000000000000, -0.0000000000000000000 ) ) ;
#355 = PERSON_AND_ORGANIZATION_ROLE ( 'design_owner' ) ;
#356 = CALENDAR_DATE ( 2024, 22, 5 ) ;
#357 = FACE_OUTER_BOUND ( 'NONE', #26, .T. ) ;
#358 = EDGE_LOOP ( 'NONE', ( #60, #195 ) ) ;
#359 = DIRECTION ( 'NONE',  ( -0.0000000000000000000, -0.0000000000000000000, 1.000000000000000000 ) ) ;
#360 = ADVANCED_FACE ( 'NONE', ( #303 ), #209, .F. ) ;
#361 = DIRECTION ( 'NONE',  ( -1.000000000000000000, 0.0000000000000000000, 0.0000000000000000000 ) ) ;
#362 = DIRECTION ( 'NONE',  ( 0.0000000000000000000, 0.0000000000000000000, 1.000000000000000000 ) ) ;
#363 = PERSON_AND_ORGANIZATION_ROLE ( 'creator' ) ;
#364 = ORIENTED_EDGE ( 'NONE', *, *, #248, .T. ) ;
#365 = ADVANCED_FACE ( 'NONE', ( #157 ), #329, .F. ) ;
#366 = AXIS2_PLACEMENT_3D ( 'NONE', #174, #352, #264 ) ;
#367 = DIRECTION ( 'NONE',  ( -1.000000000000000000, 0.0000000000000000000, 0.0000000000000000000 ) ) ;
#368 = COORDINATED_UNIVERSAL_TIME_OFFSET ( 1, 0, .AHEAD. ) ;
#369 = LINE ( 'NONE', #155, #228 ) ;
#370 = ORIENTED_EDGE ( 'NONE', *, *, #100, .T. ) ;
#371 = EDGE_CURVE ( 'NONE', #349, #344, #53, .T. ) ;
#372 = ORIENTED_EDGE ( 'NONE', *, *, #340, .F. ) ;
#373 = DIRECTION ( 'NONE',  ( -0.0000000000000000000, -0.0000000000000000000, -1.000000000000000000 ) ) ;
#374 = APPROVAL_PERSON_ORGANIZATION ( #249, #146, #307 ) ;
#375 = VECTOR ( 'NONE', #269, 999.9999999999998900 ) ;
#376 = CARTESIAN_POINT ( 'NONE',  ( 0.0000000000000000000, 0.0000000000000000000, -18.50000000000000400 ) ) ;
#377 = CONICAL_SURFACE ( 'NONE', #366, 1.649999999999996100, 1.029744258676652300 ) ;
#378 = ORIENTED_EDGE ( 'NONE', *, *, #204, .F. ) ;
#379 = UNCERTAINTY_MEASURE_WITH_UNIT (LENGTH_MEASURE( 1.000000000000000100E-005 ), #3, 'distance_accuracy_value', 'NONE');
#380 = CARTESIAN_POINT ( 'NONE',  ( -1.649999999999996100, 2.020667218593128100E-016, 18.50000000000000000 ) ) ;
#381 = APPROVAL_PERSON_ORGANIZATION ( #71, #95, #187 ) ;
#382 = CYLINDRICAL_SURFACE ( 'NONE', #23, 1.649999999999993000 ) ;
#383 = ORIENTED_EDGE ( 'NONE', *, *, #141, .T. ) ;
ENDSEC;
END-ISO-10303-21;
