ISO-10303-21;
HEADER;
FILE_DESCRIPTION (( 'STEP AP214' ),
    '1' );
FILE_NAME ('CYC-023.step',
    '2024-04-03T09:40:12',
    ( '' ),
    ( '' ),
    'SwSTEP 2.0',
    'SolidWorks 2024',
    '' );
FILE_SCHEMA (( 'AUTOMOTIVE_DESIGN' ));
ENDSEC;

DATA;
#1 = ORIENTED_EDGE ( 'NONE', *, *, #133, .T. ) ;
#2 = PRODUCT_DEFINITION_CONTEXT ( 'detailed design', #68, 'design' ) ;
#3 = DIRECTION ( 'NONE',  ( 0.000000000000000000, 0.000000000000000000, 1.000000000000000000 ) ) ;
#4 = ORIENTED_EDGE ( 'NONE', *, *, #198, .F. ) ;
#5 = CIRCLE ( 'NONE', #18, 15.00000000000000000 ) ;
#6 =( LENGTH_UNIT ( ) NAMED_UNIT ( * ) SI_UNIT ( .MILLI., .METRE. ) );
#7 = ORIENTED_EDGE ( 'NONE', *, *, #207, .T. ) ;
#8 = EDGE_CURVE ( 'NONE', #91, #131, #272, .T. ) ;
#9 = CIRCLE ( 'NONE', #279, 15.00000000000000000 ) ;
#10 = VERTEX_POINT ( 'NONE', #140 ) ;
#11 = FACE_BOUND ( 'NONE', #266, .T. ) ;
#12 = EDGE_CURVE ( 'NONE', #116, #205, #234, .T. ) ;
#13 = CYLINDRICAL_SURFACE ( 'NONE', #66, 15.00000000000000000 ) ;
#14 = ORIENTED_EDGE ( 'NONE', *, *, #166, .T. ) ;
#15 = PLANE ( 'NONE',  #77 ) ;
#16 = CYLINDRICAL_SURFACE ( 'NONE', #49, 15.00000000000000000 ) ;
#17 = EDGE_CURVE ( 'NONE', #131, #196, #271, .T. ) ;
#18 = AXIS2_PLACEMENT_3D ( 'NONE', #212, #167, #231 ) ;
#19 = DIRECTION ( 'NONE',  ( 1.000000000000000000, 0.000000000000000000, -0.000000000000000000 ) ) ;
#20 = CARTESIAN_POINT ( 'NONE',  ( -17.50000000000000000, 0.000000000000000000, 0.000000000000000000 ) ) ;
#21 = PRODUCT_DEFINITION ( 'UNKNOWN', '', #183, #2 ) ;
#22 = CARTESIAN_POINT ( 'NONE',  ( 15.00000000000000000, 1.836970198721029589E-15, 0.000000000000000000 ) ) ;
#23 =( NAMED_UNIT ( * ) PLANE_ANGLE_UNIT ( ) SI_UNIT ( $, .RADIAN. ) );
#24 = DIRECTION ( 'NONE',  ( 1.000000000000000000, 0.000000000000000000, 0.000000000000000000 ) ) ;
#25 = VERTEX_POINT ( 'NONE', #163 ) ;
#26 = SURFACE_SIDE_STYLE ('',( #154 ) ) ;
#27 = EDGE_CURVE ( 'NONE', #74, #273, #221, .T. ) ;
#28 = ORIENTED_EDGE ( 'NONE', *, *, #27, .F. ) ;
#29 = AXIS2_PLACEMENT_3D ( 'NONE', #237, #42, #59 ) ;
#30 = EDGE_LOOP ( 'NONE', ( #254, #72, #36, #177 ) ) ;
#31 = EDGE_CURVE ( 'NONE', #273, #244, #51, .T. ) ;
#32 = APPLICATION_CONTEXT ( 'automotive_design' ) ;
#33 = ORIENTED_EDGE ( 'NONE', *, *, #190, .F. ) ;
#34 = CARTESIAN_POINT ( 'NONE',  ( 17.50000000000000000, 2.143131898507868248E-15, 0.000000000000000000 ) ) ;
#35 = AXIS2_PLACEMENT_3D ( 'NONE', #194, #3, #24 ) ;
#36 = ORIENTED_EDGE ( 'NONE', *, *, #31, .T. ) ;
#37 = DIRECTION ( 'NONE',  ( -1.000000000000000000, 0.000000000000000000, 0.000000000000000000 ) ) ;
#38 = CARTESIAN_POINT ( 'NONE',  ( 0.000000000000000000, 0.000000000000000000, -1.999999999999999556 ) ) ;
#39 = VECTOR ( 'NONE', #197, 1000.000000000000000 ) ;
#40 = FACE_OUTER_BOUND ( 'NONE', #250, .T. ) ;
#41 = DIRECTION ( 'NONE',  ( -0.000000000000000000, -0.000000000000000000, -1.000000000000000000 ) ) ;
#42 = DIRECTION ( 'NONE',  ( -0.000000000000000000, -0.000000000000000000, -1.000000000000000000 ) ) ;
#43 = AXIS2_PLACEMENT_3D ( 'NONE', #227, #95, #52 ) ;
#44 = APPLICATION_PROTOCOL_DEFINITION ( 'draft international standard', 'automotive_design', 1998, #32 ) ;
#45 = DIRECTION ( 'NONE',  ( -0.000000000000000000, -0.000000000000000000, -1.000000000000000000 ) ) ;
#46 = CARTESIAN_POINT ( 'NONE',  ( 15.00000000000000000, 1.836970198721029589E-15, -2.000000000000000000 ) ) ;
#47 = CIRCLE ( 'NONE', #204, 17.50000000000000000 ) ;
#48 = EDGE_LOOP ( 'NONE', ( #220, #86, #4, #112 ) ) ;
#49 = AXIS2_PLACEMENT_3D ( 'NONE', #100, #187, #192 ) ;
#50 = FILL_AREA_STYLE ('',( #84 ) ) ;
#51 = LINE ( 'NONE', #164, #94 ) ;
#52 = DIRECTION ( 'NONE',  ( -1.000000000000000000, 0.000000000000000000, 0.000000000000000000 ) ) ;
#53 = DIRECTION ( 'NONE',  ( -0.000000000000000000, 0.000000000000000000, -1.000000000000000000 ) ) ;
#54 = EDGE_LOOP ( 'NONE', ( #203, #136 ) ) ;
#55 = DIRECTION ( 'NONE',  ( -1.000000000000000000, 0.000000000000000000, 0.000000000000000000 ) ) ;
#56 = CIRCLE ( 'NONE', #175, 17.50000000000000000 ) ;
#57 = ADVANCED_BREP_SHAPE_REPRESENTATION ( 'CYC-023', ( #257, #35 ), #115 ) ;
#58 = EDGE_CURVE ( 'NONE', #273, #74, #170, .T. ) ;
#59 = DIRECTION ( 'NONE',  ( -1.000000000000000000, 0.000000000000000000, 0.000000000000000000 ) ) ;
#60 = DIRECTION ( 'NONE',  ( -0.000000000000000000, -0.000000000000000000, -1.000000000000000000 ) ) ;
#61 = DIRECTION ( 'NONE',  ( -0.000000000000000000, -0.000000000000000000, -1.000000000000000000 ) ) ;
#62 = LINE ( 'NONE', #20, #87 ) ;
#63 = CARTESIAN_POINT ( 'NONE',  ( 0.000000000000000000, 0.000000000000000000, 2.000000000000000000 ) ) ;
#64 = EDGE_CURVE ( 'NONE', #196, #131, #47, .T. ) ;
#65 = ADVANCED_FACE ( 'NONE', ( #268, #11 ), #15, .F. ) ;
#66 = AXIS2_PLACEMENT_3D ( 'NONE', #151, #146, #186 ) ;
#67 = COLOUR_RGB ( '',0.6470588235294117974, 0.6196078431372549211, 0.5882352941176470784 ) ;
#68 = APPLICATION_CONTEXT ( 'automotive_design' ) ;
#69 = ORIENTED_EDGE ( 'NONE', *, *, #58, .T. ) ;
#70 = CARTESIAN_POINT ( 'NONE',  ( 12.59999999999999964, 1.543054966925665076E-15, 2.000000000000000444 ) ) ;
#71 = VECTOR ( 'NONE', #120, 1000.000000000000000 ) ;
#72 = ORIENTED_EDGE ( 'NONE', *, *, #58, .F. ) ;
#73 = ORIENTED_EDGE ( 'NONE', *, *, #17, .F. ) ;
#74 = VERTEX_POINT ( 'NONE', #70 ) ;
#75 = EDGE_CURVE ( 'NONE', #74, #134, #93, .T. ) ;
#76 = FACE_OUTER_BOUND ( 'NONE', #30, .T. ) ;
#77 = AXIS2_PLACEMENT_3D ( 'NONE', #138, #53, #201 ) ;
#78 =( GEOMETRIC_REPRESENTATION_CONTEXT ( 3 ) GLOBAL_UNCERTAINTY_ASSIGNED_CONTEXT ( ( #174 ) ) GLOBAL_UNIT_ASSIGNED_CONTEXT ( ( #6, #248, #240 ) ) REPRESENTATION_CONTEXT ( 'NONE', 'WORKASPACE' ) );
#79 = CARTESIAN_POINT ( 'NONE',  ( 0.000000000000000000, 0.000000000000000000, 2.000000000000000000 ) ) ;
#80 = CARTESIAN_POINT ( 'NONE',  ( 15.00000000000000000, 0.000000000000000000, -2.000000000000000000 ) ) ;
#81 = CYLINDRICAL_SURFACE ( 'NONE', #210, 17.50000000000000000 ) ;
#82 = VECTOR ( 'NONE', #228, 1000.000000000000000 ) ;
#83 = CARTESIAN_POINT ( 'NONE',  ( 17.50000000000000000, 2.143131898507868248E-15, 0.000000000000000000 ) ) ;
#84 = FILL_AREA_STYLE_COLOUR ( '', #67 ) ;
#85 =( NAMED_UNIT ( * ) SI_UNIT ( $, .STERADIAN. ) SOLID_ANGLE_UNIT ( ) );
#86 = ORIENTED_EDGE ( 'NONE', *, *, #245, .T. ) ;
#87 = VECTOR ( 'NONE', #60, 1000.000000000000000 ) ;
#88 = AXIS2_PLACEMENT_3D ( 'NONE', #80, #168, #235 ) ;
#89 = PRODUCT_CONTEXT ( 'NONE', #32, 'mechanical' ) ;
#90 = ORIENTED_EDGE ( 'NONE', *, *, #64, .T. ) ;
#91 = VERTEX_POINT ( 'NONE', #253 ) ;
#92 = DIRECTION ( 'NONE',  ( -0.000000000000000000, -0.000000000000000000, -1.000000000000000000 ) ) ;
#93 = LINE ( 'NONE', #252, #82 ) ;
#94 = VECTOR ( 'NONE', #145, 1000.000000000000000 ) ;
#95 = DIRECTION ( 'NONE',  ( -0.000000000000000000, -0.000000000000000000, -1.000000000000000000 ) ) ;
#96 = AXIS2_PLACEMENT_3D ( 'NONE', #126, #260, #125 ) ;
#97 = PRODUCT_DEFINITION_SHAPE ( 'NONE', 'NONE',  #21 ) ;
#98 = CARTESIAN_POINT ( 'NONE',  ( 0.000000000000000000, 0.000000000000000000, 0.000000000000000000 ) ) ;
#99 = DIRECTION ( 'NONE',  ( -0.000000000000000000, -0.000000000000000000, -1.000000000000000000 ) ) ;
#100 = CARTESIAN_POINT ( 'NONE',  ( 0.000000000000000000, 0.000000000000000000, 0.000000000000000000 ) ) ;
#101 = FACE_BOUND ( 'NONE', #206, .T. ) ;
#102 = CARTESIAN_POINT ( 'NONE',  ( -17.50000000000000000, 0.000000000000000000, 0.000000000000000000 ) ) ;
#103 = FACE_OUTER_BOUND ( 'NONE', #184, .T. ) ;
#104 = CIRCLE ( 'NONE', #144, 17.50000000000000000 ) ;
#105 = CIRCLE ( 'NONE', #255, 12.59999999999999964 ) ;
#106 = AXIS2_PLACEMENT_3D ( 'NONE', #258, #147, #191 ) ;
#107 = ADVANCED_FACE ( 'NONE', ( #119 ), #13, .T. ) ;
#108 = CYLINDRICAL_SURFACE ( 'NONE', #247, 17.50000000000000000 ) ;
#109 = EDGE_LOOP ( 'NONE', ( #90, #162 ) ) ;
#110 = AXIS2_PLACEMENT_3D ( 'NONE', #98, #161, #251 ) ;
#111 = FACE_OUTER_BOUND ( 'NONE', #114, .T. ) ;
#112 = ORIENTED_EDGE ( 'NONE', *, *, #211, .F. ) ;
#113 = SURFACE_STYLE_USAGE ( .BOTH. , #26 ) ;
#114 = EDGE_LOOP ( 'NONE', ( #1, #225, #230, #270 ) ) ;
#115 =( GEOMETRIC_REPRESENTATION_CONTEXT ( 3 ) GLOBAL_UNCERTAINTY_ASSIGNED_CONTEXT ( ( #218 ) ) GLOBAL_UNIT_ASSIGNED_CONTEXT ( ( #157, #23, #85 ) ) REPRESENTATION_CONTEXT ( 'NONE', 'WORKASPACE' ) );
#116 = VERTEX_POINT ( 'NONE', #172 ) ;
#117 = EDGE_CURVE ( 'NONE', #91, #10, #104, .T. ) ;
#118 = DIRECTION ( 'NONE',  ( -0.000000000000000000, -0.000000000000000000, -1.000000000000000000 ) ) ;
#119 = FACE_OUTER_BOUND ( 'NONE', #48, .T. ) ;
#120 = DIRECTION ( 'NONE',  ( -0.000000000000000000, -0.000000000000000000, -1.000000000000000000 ) ) ;
#121 = STYLED_ITEM ( 'NONE', ( #224 ), #257 ) ;
#122 = CARTESIAN_POINT ( 'NONE',  ( 0.000000000000000000, 0.000000000000000000, 2.000000000000000444 ) ) ;
#123 = DIRECTION ( 'NONE',  ( -1.000000000000000000, 0.000000000000000000, 0.000000000000000000 ) ) ;
#124 = PLANE ( 'NONE',  #171 ) ;
#125 = DIRECTION ( 'NONE',  ( -1.000000000000000000, 0.000000000000000000, 0.000000000000000000 ) ) ;
#126 = CARTESIAN_POINT ( 'NONE',  ( 0.000000000000000000, 0.000000000000000000, 0.000000000000000000 ) ) ;
#127 = ADVANCED_FACE ( 'NONE', ( #76 ), #261, .F. ) ;
#128 = CARTESIAN_POINT ( 'NONE',  ( 0.000000000000000000, 0.000000000000000000, -2.000000000000000000 ) ) ;
#129 = MECHANICAL_DESIGN_GEOMETRIC_PRESENTATION_REPRESENTATION (  '', ( #121 ), #78 ) ;
#130 = CARTESIAN_POINT ( 'NONE',  ( 0.000000000000000000, 0.000000000000000000, 0.000000000000000000 ) ) ;
#131 = VERTEX_POINT ( 'NONE', #83 ) ;
#132 = ORIENTED_EDGE ( 'NONE', *, *, #12, .F. ) ;
#133 = EDGE_CURVE ( 'NONE', #10, #91, #56, .T. ) ;
#134 = VERTEX_POINT ( 'NONE', #165 ) ;
#135 = CARTESIAN_POINT ( 'NONE',  ( -12.59999999999999964, 0.000000000000000000, 2.000000000000000444 ) ) ;
#136 = ORIENTED_EDGE ( 'NONE', *, *, #117, .F. ) ;
#137 = EDGE_CURVE ( 'NONE', #10, #196, #62, .T. ) ;
#138 = CARTESIAN_POINT ( 'NONE',  ( 17.50000000000000000, 0.000000000000000000, 2.000000000000000000 ) ) ;
#139 = ORIENTED_EDGE ( 'NONE', *, *, #137, .T. ) ;
#140 = CARTESIAN_POINT ( 'NONE',  ( -17.50000000000000000, 0.000000000000000000, 2.000000000000000000 ) ) ;
#141 = ADVANCED_FACE ( 'NONE', ( #103 ), #232, .F. ) ;
#142 = PRODUCT ( 'CYC-023', 'CYC-023', '', ( #89 ) ) ;
#143 = ORIENTED_EDGE ( 'NONE', *, *, #27, .T. ) ;
#144 = AXIS2_PLACEMENT_3D ( 'NONE', #79, #274, #169 ) ;
#145 = DIRECTION ( 'NONE',  ( -0.000000000000000000, -0.000000000000000000, -1.000000000000000000 ) ) ;
#146 = DIRECTION ( 'NONE',  ( -0.000000000000000000, -0.000000000000000000, -1.000000000000000000 ) ) ;
#147 = DIRECTION ( 'NONE',  ( -0.000000000000000000, -0.000000000000000000, -1.000000000000000000 ) ) ;
#148 = CARTESIAN_POINT ( 'NONE',  ( 0.000000000000000000, 0.000000000000000000, 0.000000000000000000 ) ) ;
#149 = FACE_OUTER_BOUND ( 'NONE', #229, .T. ) ;
#150 = PRODUCT_RELATED_PRODUCT_CATEGORY ( 'part', '', ( #142 ) ) ;
#151 = CARTESIAN_POINT ( 'NONE',  ( 0.000000000000000000, 0.000000000000000000, 0.000000000000000000 ) ) ;
#152 = DIRECTION ( 'NONE',  ( -1.000000000000000000, 0.000000000000000000, 0.000000000000000000 ) ) ;
#153 = ORIENTED_EDGE ( 'NONE', *, *, #75, .T. ) ;
#154 = SURFACE_STYLE_FILL_AREA ( #50 ) ;
#155 = ORIENTED_EDGE ( 'NONE', *, *, #117, .T. ) ;
#156 = AXIS2_PLACEMENT_3D ( 'NONE', #181, #180, #160 ) ;
#157 =( LENGTH_UNIT ( ) NAMED_UNIT ( * ) SI_UNIT ( .MILLI., .METRE. ) );
#158 = ORIENTED_EDGE ( 'NONE', *, *, #166, .F. ) ;
#159 = EDGE_CURVE ( 'NONE', #205, #116, #236, .T. ) ;
#160 = DIRECTION ( 'NONE',  ( -1.000000000000000000, 0.000000000000000000, 0.000000000000000000 ) ) ;
#161 = DIRECTION ( 'NONE',  ( -0.000000000000000000, -0.000000000000000000, -1.000000000000000000 ) ) ;
#162 = ORIENTED_EDGE ( 'NONE', *, *, #17, .T. ) ;
#163 = CARTESIAN_POINT ( 'NONE',  ( -15.00000000000000000, 0.000000000000000000, -2.000000000000000000 ) ) ;
#164 = CARTESIAN_POINT ( 'NONE',  ( -12.59999999999999964, 0.000000000000000000, 0.000000000000000000 ) ) ;
#165 = CARTESIAN_POINT ( 'NONE',  ( 12.59999999999999964, 1.543054966925665076E-15, -1.999999999999999556 ) ) ;
#166 = EDGE_CURVE ( 'NONE', #243, #25, #9, .T. ) ;
#167 = DIRECTION ( 'NONE',  ( -0.000000000000000000, -0.000000000000000000, -1.000000000000000000 ) ) ;
#168 = DIRECTION ( 'NONE',  ( 0.000000000000000000, 0.000000000000000000, 1.000000000000000000 ) ) ;
#169 = DIRECTION ( 'NONE',  ( -1.000000000000000000, 0.000000000000000000, 0.000000000000000000 ) ) ;
#170 = CIRCLE ( 'NONE', #156, 12.59999999999999964 ) ;
#171 = AXIS2_PLACEMENT_3D ( 'NONE', #209, #277, #19 ) ;
#172 = CARTESIAN_POINT ( 'NONE',  ( -15.00000000000000000, 0.000000000000000000, 0.000000000000000000 ) ) ;
#173 = CARTESIAN_POINT ( 'NONE',  ( 0.000000000000000000, 0.000000000000000000, 0.000000000000000000 ) ) ;
#174 = UNCERTAINTY_MEASURE_WITH_UNIT (LENGTH_MEASURE( 1.000000000000000082E-05 ), #6, 'distance_accuracy_value', 'NONE');
#175 = AXIS2_PLACEMENT_3D ( 'NONE', #63, #238, #123 ) ;
#176 = APPLICATION_PROTOCOL_DEFINITION ( 'draft international standard', 'automotive_design', 1998, #68 ) ;
#177 = ORIENTED_EDGE ( 'NONE', *, *, #190, .T. ) ;
#178 = ORIENTED_EDGE ( 'NONE', *, *, #159, .T. ) ;
#179 = CARTESIAN_POINT ( 'NONE',  ( -12.59999999999999964, 0.000000000000000000, -1.999999999999999556 ) ) ;
#180 = DIRECTION ( 'NONE',  ( -0.000000000000000000, -0.000000000000000000, -1.000000000000000000 ) ) ;
#181 = CARTESIAN_POINT ( 'NONE',  ( 0.000000000000000000, 0.000000000000000000, 2.000000000000000444 ) ) ;
#182 = EDGE_LOOP ( 'NONE', ( #132, #249 ) ) ;
#183 = PRODUCT_DEFINITION_FORMATION_WITH_SPECIFIED_SOURCE ( 'ANY', '', #142, .NOT_KNOWN. ) ;
#184 = EDGE_LOOP ( 'NONE', ( #28, #153, #7, #246 ) ) ;
#185 = ORIENTED_EDGE ( 'NONE', *, *, #198, .T. ) ;
#186 = DIRECTION ( 'NONE',  ( -1.000000000000000000, 0.000000000000000000, 0.000000000000000000 ) ) ;
#187 = DIRECTION ( 'NONE',  ( -0.000000000000000000, -0.000000000000000000, -1.000000000000000000 ) ) ;
#188 = PRESENTATION_LAYER_ASSIGNMENT (  '', '', ( #121 ) ) ;
#189 = FACE_OUTER_BOUND ( 'NONE', #219, .T. ) ;
#190 = EDGE_CURVE ( 'NONE', #244, #134, #105, .T. ) ;
#191 = DIRECTION ( 'NONE',  ( -1.000000000000000000, 0.000000000000000000, 0.000000000000000000 ) ) ;
#192 = DIRECTION ( 'NONE',  ( -1.000000000000000000, 0.000000000000000000, 0.000000000000000000 ) ) ;
#193 = LINE ( 'NONE', #242, #39 ) ;
#194 = CARTESIAN_POINT ( 'NONE',  ( 0.000000000000000000, 0.000000000000000000, 0.000000000000000000 ) ) ;
#195 = DIRECTION ( 'NONE',  ( -1.000000000000000000, 0.000000000000000000, 0.000000000000000000 ) ) ;
#196 = VERTEX_POINT ( 'NONE', #102 ) ;
#197 = DIRECTION ( 'NONE',  ( -0.000000000000000000, -0.000000000000000000, -1.000000000000000000 ) ) ;
#198 = EDGE_CURVE ( 'NONE', #25, #243, #5, .T. ) ;
#199 = ORIENTED_EDGE ( 'NONE', *, *, #211, .T. ) ;
#200 = AXIS2_PLACEMENT_3D ( 'NONE', #122, #92, #55 ) ;
#201 = DIRECTION ( 'NONE',  ( -1.000000000000000000, 0.000000000000000000, 0.000000000000000000 ) ) ;
#202 = DIRECTION ( 'NONE',  ( -1.000000000000000000, 0.000000000000000000, 0.000000000000000000 ) ) ;
#203 = ORIENTED_EDGE ( 'NONE', *, *, #133, .F. ) ;
#204 = AXIS2_PLACEMENT_3D ( 'NONE', #269, #118, #202 ) ;
#205 = VERTEX_POINT ( 'NONE', #22 ) ;
#206 = EDGE_LOOP ( 'NONE', ( #33, #264 ) ) ;
#207 = EDGE_CURVE ( 'NONE', #134, #244, #222, .T. ) ;
#208 = LINE ( 'NONE', #259, #267 ) ;
#209 = CARTESIAN_POINT ( 'NONE',  ( 15.00000000000000000, 0.000000000000000000, 0.000000000000000000 ) ) ;
#210 = AXIS2_PLACEMENT_3D ( 'NONE', #173, #45, #152 ) ;
#211 = EDGE_CURVE ( 'NONE', #116, #25, #208, .T. ) ;
#212 = CARTESIAN_POINT ( 'NONE',  ( 0.000000000000000000, 0.000000000000000000, -2.000000000000000000 ) ) ;
#213 = DIRECTION ( 'NONE',  ( -1.000000000000000000, 0.000000000000000000, 0.000000000000000000 ) ) ;
#214 = DIRECTION ( 'NONE',  ( -0.000000000000000000, -0.000000000000000000, -1.000000000000000000 ) ) ;
#215 = AXIS2_PLACEMENT_3D ( 'NONE', #148, #61, #213 ) ;
#216 = ORIENTED_EDGE ( 'NONE', *, *, #8, .F. ) ;
#217 = ADVANCED_FACE ( 'NONE', ( #149 ), #16, .T. ) ;
#218 = UNCERTAINTY_MEASURE_WITH_UNIT (LENGTH_MEASURE( 1.000000000000000082E-05 ), #157, 'distance_accuracy_value', 'NONE');
#219 = EDGE_LOOP ( 'NONE', ( #185, #14 ) ) ;
#220 = ORIENTED_EDGE ( 'NONE', *, *, #12, .T. ) ;
#221 = CIRCLE ( 'NONE', #200, 12.59999999999999964 ) ;
#222 = CIRCLE ( 'NONE', #106, 12.59999999999999964 ) ;
#223 = ADVANCED_FACE ( 'NONE', ( #275, #278 ), #124, .F. ) ;
#224 = PRESENTATION_STYLE_ASSIGNMENT (( #113 ) ) ;
#225 = ORIENTED_EDGE ( 'NONE', *, *, #8, .T. ) ;
#226 = ORIENTED_EDGE ( 'NONE', *, *, #245, .F. ) ;
#227 = CARTESIAN_POINT ( 'NONE',  ( 0.000000000000000000, 0.000000000000000000, 0.000000000000000000 ) ) ;
#228 = DIRECTION ( 'NONE',  ( -0.000000000000000000, -0.000000000000000000, -1.000000000000000000 ) ) ;
#229 = EDGE_LOOP ( 'NONE', ( #226, #178, #199, #158 ) ) ;
#230 = ORIENTED_EDGE ( 'NONE', *, *, #64, .F. ) ;
#231 = DIRECTION ( 'NONE',  ( -1.000000000000000000, 0.000000000000000000, 0.000000000000000000 ) ) ;
#232 = CYLINDRICAL_SURFACE ( 'NONE', #29, 12.59999999999999964 ) ;
#233 = ADVANCED_FACE ( 'NONE', ( #101, #189 ), #276, .F. ) ;
#234 = CIRCLE ( 'NONE', #110, 15.00000000000000000 ) ;
#235 = DIRECTION ( 'NONE',  ( 1.000000000000000000, 0.000000000000000000, -0.000000000000000000 ) ) ;
#236 = CIRCLE ( 'NONE', #96, 15.00000000000000000 ) ;
#237 = CARTESIAN_POINT ( 'NONE',  ( 0.000000000000000000, 0.000000000000000000, 0.000000000000000000 ) ) ;
#238 = DIRECTION ( 'NONE',  ( -0.000000000000000000, -0.000000000000000000, -1.000000000000000000 ) ) ;
#239 = ADVANCED_FACE ( 'NONE', ( #40 ), #81, .T. ) ;
#240 =( NAMED_UNIT ( * ) SI_UNIT ( $, .STERADIAN. ) SOLID_ANGLE_UNIT ( ) );
#241 = CLOSED_SHELL ( 'NONE', ( #263, #141, #107, #217, #233, #127, #65, #239, #223 ) ) ;
#242 = CARTESIAN_POINT ( 'NONE',  ( 15.00000000000000000, 1.836970198721029589E-15, 0.000000000000000000 ) ) ;
#243 = VERTEX_POINT ( 'NONE', #46 ) ;
#244 = VERTEX_POINT ( 'NONE', #179 ) ;
#245 = EDGE_CURVE ( 'NONE', #205, #243, #193, .T. ) ;
#246 = ORIENTED_EDGE ( 'NONE', *, *, #31, .F. ) ;
#247 = AXIS2_PLACEMENT_3D ( 'NONE', #130, #265, #195 ) ;
#248 =( NAMED_UNIT ( * ) PLANE_ANGLE_UNIT ( ) SI_UNIT ( $, .RADIAN. ) );
#249 = ORIENTED_EDGE ( 'NONE', *, *, #159, .F. ) ;
#250 = EDGE_LOOP ( 'NONE', ( #216, #155, #139, #73 ) ) ;
#251 = DIRECTION ( 'NONE',  ( -1.000000000000000000, 0.000000000000000000, 0.000000000000000000 ) ) ;
#252 = CARTESIAN_POINT ( 'NONE',  ( 12.59999999999999964, 1.543054966925665076E-15, 0.000000000000000000 ) ) ;
#253 = CARTESIAN_POINT ( 'NONE',  ( 17.50000000000000000, 2.143131898507868248E-15, 2.000000000000000000 ) ) ;
#254 = ORIENTED_EDGE ( 'NONE', *, *, #75, .F. ) ;
#255 = AXIS2_PLACEMENT_3D ( 'NONE', #38, #99, #256 ) ;
#256 = DIRECTION ( 'NONE',  ( -1.000000000000000000, 0.000000000000000000, 0.000000000000000000 ) ) ;
#257 = MANIFOLD_SOLID_BREP ( 'Révolution1', #241 ) ;
#258 = CARTESIAN_POINT ( 'NONE',  ( 0.000000000000000000, 0.000000000000000000, -1.999999999999999556 ) ) ;
#259 = CARTESIAN_POINT ( 'NONE',  ( -15.00000000000000000, 0.000000000000000000, 0.000000000000000000 ) ) ;
#260 = DIRECTION ( 'NONE',  ( -0.000000000000000000, -0.000000000000000000, -1.000000000000000000 ) ) ;
#261 = CYLINDRICAL_SURFACE ( 'NONE', #215, 12.59999999999999964 ) ;
#262 = SHAPE_DEFINITION_REPRESENTATION ( #97, #57 ) ;
#263 = ADVANCED_FACE ( 'NONE', ( #111 ), #108, .T. ) ;
#264 = ORIENTED_EDGE ( 'NONE', *, *, #207, .F. ) ;
#265 = DIRECTION ( 'NONE',  ( -0.000000000000000000, -0.000000000000000000, -1.000000000000000000 ) ) ;
#266 = EDGE_LOOP ( 'NONE', ( #69, #143 ) ) ;
#267 = VECTOR ( 'NONE', #41, 1000.000000000000000 ) ;
#268 = FACE_OUTER_BOUND ( 'NONE', #54, .T. ) ;
#269 = CARTESIAN_POINT ( 'NONE',  ( 0.000000000000000000, 0.000000000000000000, 0.000000000000000000 ) ) ;
#270 = ORIENTED_EDGE ( 'NONE', *, *, #137, .F. ) ;
#271 = CIRCLE ( 'NONE', #43, 17.50000000000000000 ) ;
#272 = LINE ( 'NONE', #34, #71 ) ;
#273 = VERTEX_POINT ( 'NONE', #135 ) ;
#274 = DIRECTION ( 'NONE',  ( -0.000000000000000000, -0.000000000000000000, -1.000000000000000000 ) ) ;
#275 = FACE_BOUND ( 'NONE', #182, .T. ) ;
#276 = PLANE ( 'NONE',  #88 ) ;
#277 = DIRECTION ( 'NONE',  ( 0.000000000000000000, 0.000000000000000000, 1.000000000000000000 ) ) ;
#278 = FACE_OUTER_BOUND ( 'NONE', #109, .T. ) ;
#279 = AXIS2_PLACEMENT_3D ( 'NONE', #128, #214, #37 ) ;
ENDSEC;
END-ISO-10303-21;
