ISO-10303-21;
HEADER;
FILE_DESCRIPTION(('STEP AP242'),'1');
FILE_NAME('JG61.12-douille tirant.C.0.stp','2024-03-22T14:43:32',(' '),(' '),'Spatial InterOp 3D',' ',' ');
FILE_SCHEMA(('AP242_MANAGED_MODEL_BASED_3D_ENGINEERING_MIM_LF  {1 0 10303 442 1 1 4}'));
ENDSEC;
DATA;
#1=MECHANICAL_DESIGN_GEOMETRIC_PRESENTATION_REPRESENTATION(' ',(#58,#59,#60,#61,#62,#63,#64,#65,#66,#67,#68,#69),#6);
#2=PRODUCT_DEFINITION_CONTEXT('',#70,'design');
#3=APPLICATION_PROTOCOL_DEFINITION('INTERNATIONAL STANDARD','ap242_managed_model_based_3d_engineering',2014,#70);
#4=PRODUCT_CATEGORY_RELATIONSHIP('NONE','NONE',#71,#72);
#5=SHAPE_DEFINITION_REPRESENTATION(#73,#74);
#6= (GEOMETRIC_REPRESENTATION_CONTEXT(3)GLOBAL_UNCERTAINTY_ASSIGNED_CONTEXT((#77))GLOBAL_UNIT_ASSIGNED_CONTEXT((#79,#80,#81))REPRESENTATION_CONTEXT('NONE','WORKSPACE'));
#7=PROPERTY_DEFINITION_REPRESENTATION(#83,#84);
#8=GENERAL_PROPERTY_ASSOCIATION('','',#85,#83);
#9=PROPERTY_DEFINITION_REPRESENTATION(#86,#87);
#10=GENERAL_PROPERTY_ASSOCIATION('','',#88,#86);
#11=PROPERTY_DEFINITION_REPRESENTATION(#89,#90);
#12=GENERAL_PROPERTY_ASSOCIATION('','',#91,#89);
#13=PROPERTY_DEFINITION_REPRESENTATION(#92,#93);
#14=GENERAL_PROPERTY_ASSOCIATION('','',#94,#92);
#15=PROPERTY_DEFINITION_REPRESENTATION(#95,#96);
#16=GENERAL_PROPERTY_ASSOCIATION('','',#97,#95);
#17=PROPERTY_DEFINITION_REPRESENTATION(#98,#99);
#18=GENERAL_PROPERTY_ASSOCIATION('','',#100,#98);
#19=PROPERTY_DEFINITION_REPRESENTATION(#101,#102);
#20=GENERAL_PROPERTY_ASSOCIATION('','',#103,#101);
#21=PROPERTY_DEFINITION_REPRESENTATION(#104,#105);
#22=GENERAL_PROPERTY_ASSOCIATION('','',#106,#104);
#23=PROPERTY_DEFINITION_REPRESENTATION(#107,#108);
#24=GENERAL_PROPERTY_ASSOCIATION('','',#109,#107);
#25=PROPERTY_DEFINITION_REPRESENTATION(#110,#111);
#26=GENERAL_PROPERTY_ASSOCIATION('','',#112,#110);
#27=PROPERTY_DEFINITION_REPRESENTATION(#113,#114);
#28=GENERAL_PROPERTY_ASSOCIATION('','',#115,#113);
#29=PROPERTY_DEFINITION_REPRESENTATION(#116,#117);
#30=GENERAL_PROPERTY_ASSOCIATION('','',#118,#116);
#31=PROPERTY_DEFINITION_REPRESENTATION(#119,#120);
#32=GENERAL_PROPERTY_ASSOCIATION('','',#121,#119);
#33=PROPERTY_DEFINITION_REPRESENTATION(#122,#123);
#34=GENERAL_PROPERTY_ASSOCIATION('','',#124,#122);
#35=PROPERTY_DEFINITION_REPRESENTATION(#125,#126);
#36=GENERAL_PROPERTY_ASSOCIATION('','',#127,#125);
#37=PROPERTY_DEFINITION_REPRESENTATION(#128,#129);
#38=GENERAL_PROPERTY_ASSOCIATION('','',#130,#128);
#39=PROPERTY_DEFINITION_REPRESENTATION(#131,#132);
#40=GENERAL_PROPERTY_ASSOCIATION('','',#133,#131);
#41=PROPERTY_DEFINITION_REPRESENTATION(#134,#135);
#42=GENERAL_PROPERTY_ASSOCIATION('','',#136,#134);
#43=PROPERTY_DEFINITION_REPRESENTATION(#137,#138);
#44=GENERAL_PROPERTY_ASSOCIATION('','',#139,#137);
#45=PROPERTY_DEFINITION_REPRESENTATION(#140,#141);
#46=GENERAL_PROPERTY_ASSOCIATION('','',#142,#140);
#47=PROPERTY_DEFINITION_REPRESENTATION(#143,#144);
#48=GENERAL_PROPERTY_ASSOCIATION('','',#145,#143);
#49=PROPERTY_DEFINITION_REPRESENTATION(#146,#147);
#50=GENERAL_PROPERTY_ASSOCIATION('','',#148,#146);
#51=PROPERTY_DEFINITION_REPRESENTATION(#149,#150);
#52=GENERAL_PROPERTY_ASSOCIATION('','',#151,#149);
#53=PROPERTY_DEFINITION_REPRESENTATION(#152,#153);
#54=GENERAL_PROPERTY_ASSOCIATION('','',#154,#152);
#58=STYLED_ITEM('',(#155),#156);
#59=STYLED_ITEM('',(#157),#158);
#60=STYLED_ITEM('',(#159),#160);
#61=STYLED_ITEM('',(#161),#162);
#62=STYLED_ITEM('',(#163),#164);
#63=STYLED_ITEM('',(#165),#166);
#64=STYLED_ITEM('',(#167),#168);
#65=STYLED_ITEM('',(#169),#170);
#66=STYLED_ITEM('',(#171),#172);
#67=STYLED_ITEM('',(#173),#174);
#68=STYLED_ITEM('',(#175),#176);
#69=STYLED_ITEM('',(#177),#178);
#70=APPLICATION_CONTEXT('managed model based 3d engineering');
#71=PRODUCT_CATEGORY('part','NONE');
#72=PRODUCT_RELATED_PRODUCT_CATEGORY('detail',' ',(#179));
#73=PRODUCT_DEFINITION_SHAPE('NONE','NONE',#180);
#74=ADVANCED_BREP_SHAPE_REPRESENTATION('douille tirant',(#178,#181),#6);
#77=UNCERTAINTY_MEASURE_WITH_UNIT(LENGTH_MEASURE(0.001),#79,'','');
#79= (CONVERSION_BASED_UNIT('MILLIMETRE',#184)LENGTH_UNIT()NAMED_UNIT(#187));
#80= (NAMED_UNIT(#189)PLANE_ANGLE_UNIT()SI_UNIT($,.RADIAN.));
#81= (NAMED_UNIT(#189)SOLID_ANGLE_UNIT()SI_UNIT($,.STERADIAN.));
#83=PROPERTY_DEFINITION('PdmObjectId','',#180);
#84=REPRESENTATION('',(#195),#6);
#85=GENERAL_PROPERTY('','PdmObjectId','');
#86=PROPERTY_DEFINITION('Type de Production','',#180);
#87=REPRESENTATION('',(#196),#6);
#88=GENERAL_PROPERTY('','Type de Production','');
#89=PROPERTY_DEFINITION('Nom','',#180);
#90=REPRESENTATION('',(#197),#6);
#91=GENERAL_PROPERTY('','Nom','');
#92=PROPERTY_DEFINITION('Type de brut','',#180);
#93=REPRESENTATION('',(#198),#6);
#94=GENERAL_PROPERTY('','Type de brut','');
#95=PROPERTY_DEFINITION('Dimensions du brut','',#180);
#96=REPRESENTATION('',(#199),#6);
#97=GENERAL_PROPERTY('','Dimensions du brut','');
#98=PROPERTY_DEFINITION('Nom du brut','',#180);
#99=REPRESENTATION('',(#200),#6);
#100=GENERAL_PROPERTY('','Nom du brut','');
#101=PROPERTY_DEFINITION('D\X2\00E9\X0\signation du brut','',#180);
#102=REPRESENTATION('',(#201),#6);
#103=GENERAL_PROPERTY('','D\X2\00E9\X0\signation du brut','');
#104=PROPERTY_DEFINITION('R\X2\00E9\X0\f\X2\00E9\X0\rence du brut','',#180);
#105=REPRESENTATION('',(#202),#6);
#106=GENERAL_PROPERTY('','R\X2\00E9\X0\f\X2\00E9\X0\rence du brut','');
#107=PROPERTY_DEFINITION('R\X2\00E9\X0\vision majeure du brut','',#180);
#108=REPRESENTATION('',(#203),#6);
#109=GENERAL_PROPERTY('','R\X2\00E9\X0\vision majeure du brut','');
#110=PROPERTY_DEFINITION('D\X2\00E9\X0\signation de la r\X2\00E8\X0\gle de mise \X2\00E0\X0\ plat','',#180);
#111=REPRESENTATION('',(#204),#6);
#112=GENERAL_PROPERTY('','D\X2\00E9\X0\signation de la r\X2\00E8\X0\gle de mise \X2\00E0\X0\ plat','');
#113=PROPERTY_DEFINITION('R\X2\00E9\X0\f\X2\00E9\X0\rence de la r\X2\00E8\X0\gle de mise \X2\00E0\X0\ plat','',#180);
#114=REPRESENTATION('',(#205),#6);
#115=GENERAL_PROPERTY('','R\X2\00E9\X0\f\X2\00E9\X0\rence de la r\X2\00E8\X0\gle de mise \X2\00E0\X0\ plat','');
#116=PROPERTY_DEFINITION('Outil de pliage','',#180);
#117=REPRESENTATION('',(#206),#6);
#118=GENERAL_PROPERTY('','Outil de pliage','');
#119=PROPERTY_DEFINITION('D\X2\00E9\X0\signation du mat\X2\00E9\X0\riau','',#180);
#120=REPRESENTATION('',(#207),#6);
#121=GENERAL_PROPERTY('','D\X2\00E9\X0\signation du mat\X2\00E9\X0\riau','');
#122=PROPERTY_DEFINITION('Nom du mat\X2\00E9\X0\riau','',#180);
#123=REPRESENTATION('',(#208),#6);
#124=GENERAL_PROPERTY('','Nom du mat\X2\00E9\X0\riau','');
#125=PROPERTY_DEFINITION('BrutFinal','',#180);
#126=REPRESENTATION('',(#209),#6);
#127=GENERAL_PROPERTY('','BrutFinal','');
#128=PROPERTY_DEFINITION('BrutCylindrique','',#180);
#129=REPRESENTATION('',(#210),#6);
#130=GENERAL_PROPERTY('','BrutCylindrique','');
#131=PROPERTY_DEFINITION('Diam\X2\00E8\X0\treCylindreFormat\X2\00E9\X0\','',#180);
#132=REPRESENTATION('',(#211),#6);
#133=GENERAL_PROPERTY('','Diam\X2\00E8\X0\treCylindreFormat\X2\00E9\X0\','');
#134=PROPERTY_DEFINITION('LongueurCylindreFormat\X2\00E9\X0\','',#180);
#135=REPRESENTATION('',(#212),#6);
#136=GENERAL_PROPERTY('','LongueurCylindreFormat\X2\00E9\X0\','');
#137=PROPERTY_DEFINITION('BrutRectangulaire','',#180);
#138=REPRESENTATION('',(#213),#6);
#139=GENERAL_PROPERTY('','BrutRectangulaire','');
#140=PROPERTY_DEFINITION('TailleXBoiteFormat\X2\00E9\X0\','',#180);
#141=REPRESENTATION('',(#214),#6);
#142=GENERAL_PROPERTY('','TailleXBoiteFormat\X2\00E9\X0\','');
#143=PROPERTY_DEFINITION('TailleYBoiteFormat\X2\00E9\X0\','',#180);
#144=REPRESENTATION('',(#215),#6);
#145=GENERAL_PROPERTY('','TailleYBoiteFormat\X2\00E9\X0\','');
#146=PROPERTY_DEFINITION('TailleZBoiteFormat\X2\00E9\X0\','',#180);
#147=REPRESENTATION('',(#216),#6);
#148=GENERAL_PROPERTY('','TailleZBoiteFormat\X2\00E9\X0\','');
#149=PROPERTY_DEFINITION('CreationDate','',#180);
#150=REPRESENTATION('',(#217),#6);
#151=GENERAL_PROPERTY('','CreationDate','');
#152=PROPERTY_DEFINITION('Minor Revision','',#180);
#153=REPRESENTATION('',(#218),#6);
#154=GENERAL_PROPERTY('','Minor Revision','');
#155=PRESENTATION_STYLE_ASSIGNMENT((#219));
#156=ADVANCED_FACE('',(#220,#221),#222,.T.);
#157=PRESENTATION_STYLE_ASSIGNMENT((#223));
#158=ADVANCED_FACE('',(#224,#225),#226,.F.);
#159=PRESENTATION_STYLE_ASSIGNMENT((#227));
#160=ADVANCED_FACE('',(#228,#229),#230,.T.);
#161=PRESENTATION_STYLE_ASSIGNMENT((#231));
#162=ADVANCED_FACE('',(#232,#233),#234,.T.);
#163=PRESENTATION_STYLE_ASSIGNMENT((#235));
#164=ADVANCED_FACE('',(#236,#237),#238,.F.);
#165=PRESENTATION_STYLE_ASSIGNMENT((#239));
#166=ADVANCED_FACE('',(#240,#241),#242,.F.);
#167=PRESENTATION_STYLE_ASSIGNMENT((#243));
#168=ADVANCED_FACE('',(#244,#245),#246,.T.);
#169=PRESENTATION_STYLE_ASSIGNMENT((#247));
#170=ADVANCED_FACE('',(#248,#249),#250,.T.);
#171=PRESENTATION_STYLE_ASSIGNMENT((#251));
#172=ADVANCED_FACE('',(#252,#253),#254,.T.);
#173=PRESENTATION_STYLE_ASSIGNMENT((#255));
#174=ADVANCED_FACE('',(#256,#257),#258,.F.);
#175=PRESENTATION_STYLE_ASSIGNMENT((#259));
#176=ADVANCED_FACE('',(#260,#261),#262,.F.);
#177=PRESENTATION_STYLE_ASSIGNMENT((#263));
#178=MANIFOLD_SOLID_BREP('douille tirant',#264);
#179=PRODUCT('douille tirant','JG61.12','douille tirant',(#265));
#180=PRODUCT_DEFINITION('','NONE',#266,#2);
#181=AXIS2_PLACEMENT_3D('',#267,#268,#269);
#184=LENGTH_MEASURE_WITH_UNIT(LENGTH_MEASURE(1.0),#270);
#187=DIMENSIONAL_EXPONENTS(1.0,0.0,0.0,0.0,0.0,0.0,0.0);
#189=DIMENSIONAL_EXPONENTS(0.0,0.0,0.0,0.0,0.0,0.0,0.0);
#195=DESCRIPTIVE_REPRESENTATION_ITEM('','19_9281b669-8d2e-4ad7-a1b1-08eeb7db4d80&2_434_15_1');
#196=DESCRIPTIVE_REPRESENTATION_ITEM('','Usinage');
#197=DESCRIPTIVE_REPRESENTATION_ITEM('','douille tirant');
#198=DESCRIPTIVE_REPRESENTATION_ITEM('','Non classifi\X2\00E9\X0\');
#199=DESCRIPTIVE_REPRESENTATION_ITEM('','');
#200=DESCRIPTIVE_REPRESENTATION_ITEM('','-');
#201=DESCRIPTIVE_REPRESENTATION_ITEM('','-');
#202=DESCRIPTIVE_REPRESENTATION_ITEM('','');
#203=DESCRIPTIVE_REPRESENTATION_ITEM('','');
#204=DESCRIPTIVE_REPRESENTATION_ITEM('','Taleau pliage');
#205=DESCRIPTIVE_REPRESENTATION_ITEM('','');
#206=DESCRIPTIVE_REPRESENTATION_ITEM('','<non sp\X2\00E9\X0\cifi\X2\00E9\X0\>');
#207=DESCRIPTIVE_REPRESENTATION_ITEM('','Acier E335 EN 10278');
#208=DESCRIPTIVE_REPRESENTATION_ITEM('','Acier E335 EN 10278');
#209=DESCRIPTIVE_REPRESENTATION_ITEM('','-');
#210=DESCRIPTIVE_REPRESENTATION_ITEM('','\X2\00D8\X0\ 50,00 \X2\00D7\X0\ 40,00');
#211=DESCRIPTIVE_REPRESENTATION_ITEM('','50,00');
#212=DESCRIPTIVE_REPRESENTATION_ITEM('','40,00');
#213=DESCRIPTIVE_REPRESENTATION_ITEM('','50,00 \X2\00D7\X0\ 50,00 \X2\00D7\X0\ 40,00');
#214=DESCRIPTIVE_REPRESENTATION_ITEM('','50,00');
#215=DESCRIPTIVE_REPRESENTATION_ITEM('','50,00');
#216=DESCRIPTIVE_REPRESENTATION_ITEM('','40,00');
#217=DESCRIPTIVE_REPRESENTATION_ITEM('','10/05/2022 08:11:44');
#218=DESCRIPTIVE_REPRESENTATION_ITEM('','0');
#219=SURFACE_STYLE_USAGE(.BOTH.,#271);
#220=FACE_OUTER_BOUND('',#272,.T.);
#221=FACE_OUTER_BOUND('',#273,.T.);
#222=CYLINDRICAL_SURFACE('',#274,20.0);
#223=SURFACE_STYLE_USAGE(.BOTH.,#275);
#224=FACE_OUTER_BOUND('',#276,.T.);
#225=FACE_OUTER_BOUND('',#277,.T.);
#226=CYLINDRICAL_SURFACE('',#278,12.55);
#227=SURFACE_STYLE_USAGE(.BOTH.,#279);
#228=FACE_BOUND('',#280,.T.);
#229=FACE_OUTER_BOUND('',#281,.T.);
#230=CONICAL_SURFACE('',#282,22.5,0.785398163397448);
#231=SURFACE_STYLE_USAGE(.BOTH.,#283);
#232=FACE_OUTER_BOUND('',#284,.T.);
#233=FACE_BOUND('',#285,.T.);
#234=CONICAL_SURFACE('',#286,22.0,0.785398163397448);
#235=SURFACE_STYLE_USAGE(.BOTH.,#287);
#236=FACE_BOUND('',#288,.T.);
#237=FACE_OUTER_BOUND('',#289,.T.);
#238=CONICAL_SURFACE('',#290,13.05,0.785398163397448);
#239=SURFACE_STYLE_USAGE(.BOTH.,#291);
#240=FACE_OUTER_BOUND('',#292,.T.);
#241=FACE_BOUND('',#293,.T.);
#242=CONICAL_SURFACE('',#294,12.55,0.785398163397448);
#243=SURFACE_STYLE_USAGE(.BOTH.,#295);
#244=FACE_OUTER_BOUND('',#296,.T.);
#245=FACE_BOUND('',#297,.T.);
#246=CONICAL_SURFACE('',#298,16.0,0.785398163397448);
#247=SURFACE_STYLE_USAGE(.BOTH.,#299);
#248=FACE_BOUND('',#300,.T.);
#249=FACE_OUTER_BOUND('',#301,.T.);
#250=PLANE('',#302);
#251=SURFACE_STYLE_USAGE(.BOTH.,#303);
#252=FACE_OUTER_BOUND('',#304,.T.);
#253=FACE_OUTER_BOUND('',#305,.T.);
#254=CYLINDRICAL_SURFACE('',#306,22.5);
#255=SURFACE_STYLE_USAGE(.BOTH.,#307);
#256=FACE_OUTER_BOUND('',#308,.T.);
#257=FACE_BOUND('',#309,.T.);
#258=PLANE('',#310);
#259=SURFACE_STYLE_USAGE(.BOTH.,#311);
#260=FACE_OUTER_BOUND('',#312,.T.);
#261=FACE_BOUND('',#313,.T.);
#262=PLANE('',#314);
#263=SURFACE_STYLE_USAGE(.BOTH.,#315);
#264=CLOSED_SHELL('',(#156,#158,#160,#162,#164,#166,#168,#170,#172,#174,#176));
#265=PRODUCT_CONTEXT('',#70,'mechanical');
#266=PRODUCT_DEFINITION_FORMATION_WITH_SPECIFIED_SOURCE('C','NONE',#179,.NOT_KNOWN.);
#267=CARTESIAN_POINT('',(0.0,0.0,0.0));
#268=DIRECTION('',(0.0,0.0,1.0));
#269=DIRECTION('',(1.0,0.0,0.0));
#270= (NAMED_UNIT(#187)LENGTH_UNIT()SI_UNIT(.MILLI.,.METRE.));
#271=SURFACE_SIDE_STYLE('',(#317));
#272=EDGE_LOOP('',(#318));
#273=EDGE_LOOP('',(#319));
#274=AXIS2_PLACEMENT_3D('',#320,#321,#322);
#275=SURFACE_SIDE_STYLE('',(#323));
#276=EDGE_LOOP('',(#324));
#277=EDGE_LOOP('',(#325));
#278=AXIS2_PLACEMENT_3D('',#326,#327,#328);
#279=SURFACE_SIDE_STYLE('',(#329));
#280=EDGE_LOOP('',(#330));
#281=EDGE_LOOP('',(#331));
#282=AXIS2_PLACEMENT_3D('',#332,#333,#334);
#283=SURFACE_SIDE_STYLE('',(#335));
#284=EDGE_LOOP('',(#336));
#285=EDGE_LOOP('',(#337));
#286=AXIS2_PLACEMENT_3D('',#338,#339,#340);
#287=SURFACE_SIDE_STYLE('',(#341));
#288=EDGE_LOOP('',(#342));
#289=EDGE_LOOP('',(#343));
#290=AXIS2_PLACEMENT_3D('',#344,#345,#346);
#291=SURFACE_SIDE_STYLE('',(#347));
#292=EDGE_LOOP('',(#348));
#293=EDGE_LOOP('',(#349));
#294=AXIS2_PLACEMENT_3D('',#350,#351,#352);
#295=SURFACE_SIDE_STYLE('',(#353));
#296=EDGE_LOOP('',(#354));
#297=EDGE_LOOP('',(#355));
#298=AXIS2_PLACEMENT_3D('',#356,#357,#358);
#299=SURFACE_SIDE_STYLE('',(#359));
#300=EDGE_LOOP('',(#360));
#301=EDGE_LOOP('',(#361));
#302=AXIS2_PLACEMENT_3D('',#362,#363,#364);
#303=SURFACE_SIDE_STYLE('',(#365));
#304=EDGE_LOOP('',(#366));
#305=EDGE_LOOP('',(#367));
#306=AXIS2_PLACEMENT_3D('',#368,#369,#370);
#307=SURFACE_SIDE_STYLE('',(#371));
#308=EDGE_LOOP('',(#372));
#309=EDGE_LOOP('',(#373));
#310=AXIS2_PLACEMENT_3D('',#374,#375,#376);
#311=SURFACE_SIDE_STYLE('',(#377));
#312=EDGE_LOOP('',(#378));
#313=EDGE_LOOP('',(#379));
#314=AXIS2_PLACEMENT_3D('',#380,#381,#382);
#315=SURFACE_SIDE_STYLE('',(#383));
#317=SURFACE_STYLE_FILL_AREA(#384);
#318=ORIENTED_EDGE('',*,*,#385,.T.);
#319=ORIENTED_EDGE('',*,*,#386,.F.);
#320=CARTESIAN_POINT('',(0.0,0.0,-17.5));
#321=DIRECTION('',(0.0,0.0,1.0));
#322=DIRECTION('',(1.0,0.0,0.0));
#323=SURFACE_STYLE_FILL_AREA(#387);
#324=ORIENTED_EDGE('',*,*,#388,.T.);
#325=ORIENTED_EDGE('',*,*,#389,.T.);
#326=CARTESIAN_POINT('',(0.0,0.0,-17.5));
#327=DIRECTION('',(0.0,0.0,1.0));
#328=DIRECTION('',(1.0,0.0,0.0));
#329=SURFACE_STYLE_FILL_AREA(#390);
#330=ORIENTED_EDGE('',*,*,#391,.F.);
#331=ORIENTED_EDGE('',*,*,#392,.F.);
#332=CARTESIAN_POINT('',(0.0,0.0,-14.0));
#333=DIRECTION('',(-0.0,0.0,-1.0));
#334=DIRECTION('',(-1.0,0.0,0.0));
#335=SURFACE_STYLE_FILL_AREA(#393);
#336=ORIENTED_EDGE('',*,*,#394,.F.);
#337=ORIENTED_EDGE('',*,*,#395,.F.);
#338=CARTESIAN_POINT('',(0.0,0.0,-17.5));
#339=DIRECTION('',(-0.0,-0.0,1.0));
#340=DIRECTION('',(1.0,0.0,0.0));
#341=SURFACE_STYLE_FILL_AREA(#396);
#342=ORIENTED_EDGE('',*,*,#388,.F.);
#343=ORIENTED_EDGE('',*,*,#397,.F.);
#344=CARTESIAN_POINT('',(0.0,0.0,-17.5));
#345=DIRECTION('',(-0.0,0.0,-1.0));
#346=DIRECTION('',(-1.0,0.0,0.0));
#347=SURFACE_STYLE_FILL_AREA(#398);
#348=ORIENTED_EDGE('',*,*,#399,.F.);
#349=ORIENTED_EDGE('',*,*,#389,.F.);
#350=CARTESIAN_POINT('',(0.0,0.0,17.0));
#351=DIRECTION('',(-0.0,-0.0,1.0));
#352=DIRECTION('',(1.0,0.0,0.0));
#353=SURFACE_STYLE_FILL_AREA(#400);
#354=ORIENTED_EDGE('',*,*,#385,.F.);
#355=ORIENTED_EDGE('',*,*,#401,.F.);
#356=CARTESIAN_POINT('',(0.0,0.0,17.5));
#357=DIRECTION('',(-0.0,0.0,-1.0));
#358=DIRECTION('',(-1.0,0.0,0.0));
#359=SURFACE_STYLE_FILL_AREA(#402);
#360=ORIENTED_EDGE('',*,*,#399,.T.);
#361=ORIENTED_EDGE('',*,*,#401,.T.);
#362=CARTESIAN_POINT('',(0.0,0.0,17.5));
#363=DIRECTION('',(0.0,0.0,1.0));
#364=DIRECTION('',(1.0,0.0,0.0));
#365=SURFACE_STYLE_FILL_AREA(#403);
#366=ORIENTED_EDGE('',*,*,#392,.T.);
#367=ORIENTED_EDGE('',*,*,#394,.T.);
#368=CARTESIAN_POINT('',(0.0,0.0,-17.5));
#369=DIRECTION('',(0.0,0.0,1.0));
#370=DIRECTION('',(-1.0,0.0,0.0));
#371=SURFACE_STYLE_FILL_AREA(#404);
#372=ORIENTED_EDGE('',*,*,#395,.T.);
#373=ORIENTED_EDGE('',*,*,#397,.T.);
#374=CARTESIAN_POINT('',(0.0,0.0,-17.5));
#375=DIRECTION('',(0.0,0.0,1.0));
#376=DIRECTION('',(1.0,0.0,0.0));
#377=SURFACE_STYLE_FILL_AREA(#405);
#378=ORIENTED_EDGE('',*,*,#391,.T.);
#379=ORIENTED_EDGE('',*,*,#386,.T.);
#380=CARTESIAN_POINT('',(0.0,0.0,-13.5));
#381=DIRECTION('',(0.0,0.0,-1.0));
#382=DIRECTION('',(-1.0,0.0,0.0));
#383=SURFACE_STYLE_FILL_AREA(#406);
#384=FILL_AREA_STYLE('',(#407));
#385=EDGE_CURVE('',#408,#408,#409,.F.);
#386=EDGE_CURVE('',#410,#410,#411,.T.);
#387=FILL_AREA_STYLE('',(#412));
#388=EDGE_CURVE('',#413,#413,#414,.F.);
#389=EDGE_CURVE('',#415,#415,#416,.T.);
#390=FILL_AREA_STYLE('',(#417));
#391=EDGE_CURVE('',#418,#418,#419,.F.);
#392=EDGE_CURVE('',#420,#420,#421,.T.);
#393=FILL_AREA_STYLE('',(#422));
#394=EDGE_CURVE('',#423,#423,#424,.T.);
#395=EDGE_CURVE('',#425,#425,#426,.F.);
#396=FILL_AREA_STYLE('',(#427));
#397=EDGE_CURVE('',#428,#428,#429,.T.);
#398=FILL_AREA_STYLE('',(#430));
#399=EDGE_CURVE('',#431,#431,#432,.F.);
#400=FILL_AREA_STYLE('',(#433));
#401=EDGE_CURVE('',#434,#434,#435,.T.);
#402=FILL_AREA_STYLE('',(#436));
#403=FILL_AREA_STYLE('',(#437));
#404=FILL_AREA_STYLE('',(#438));
#405=FILL_AREA_STYLE('',(#439));
#406=FILL_AREA_STYLE('',(#440));
#407=FILL_AREA_STYLE_COLOUR('',#441);
#408=VERTEX_POINT('',#442);
#409=CIRCLE('',#443,20.0);
#410=VERTEX_POINT('',#444);
#411=CIRCLE('',#445,20.0);
#412=FILL_AREA_STYLE_COLOUR('',#446);
#413=VERTEX_POINT('',#447);
#414=CIRCLE('',#448,12.55);
#415=VERTEX_POINT('',#449);
#416=CIRCLE('',#450,12.55);
#417=FILL_AREA_STYLE_COLOUR('',#451);
#418=VERTEX_POINT('',#452);
#419=CIRCLE('',#453,22.0);
#420=VERTEX_POINT('',#454);
#421=CIRCLE('',#455,22.5);
#422=FILL_AREA_STYLE_COLOUR('',#456);
#423=VERTEX_POINT('',#457);
#424=CIRCLE('',#458,22.5);
#425=VERTEX_POINT('',#459);
#426=CIRCLE('',#460,22.0);
#427=FILL_AREA_STYLE_COLOUR('',#461);
#428=VERTEX_POINT('',#462);
#429=CIRCLE('',#463,13.05);
#430=FILL_AREA_STYLE_COLOUR('',#464);
#431=VERTEX_POINT('',#465);
#432=CIRCLE('',#466,13.05);
#433=FILL_AREA_STYLE_COLOUR('',#467);
#434=VERTEX_POINT('',#468);
#435=CIRCLE('',#469,16.0);
#436=FILL_AREA_STYLE_COLOUR('',#470);
#437=FILL_AREA_STYLE_COLOUR('',#471);
#438=FILL_AREA_STYLE_COLOUR('',#472);
#439=FILL_AREA_STYLE_COLOUR('',#473);
#440=FILL_AREA_STYLE_COLOUR('',#474);
#441=COLOUR_RGB('',0.752941191196442,0.752941191196442,0.752941191196442);
#442=CARTESIAN_POINT('',(20.0,-4.89858719658941E-15,13.5));
#443=AXIS2_PLACEMENT_3D('',#475,#476,#477);
#444=CARTESIAN_POINT('',(-20.0,0.0,-13.5));
#445=AXIS2_PLACEMENT_3D('',#478,#479,#480);
#446=COLOUR_RGB('',0.752941191196442,0.752941191196442,0.752941191196442);
#447=CARTESIAN_POINT('',(12.55,-3.07386346585986E-15,-17.0));
#448=AXIS2_PLACEMENT_3D('',#481,#482,#483);
#449=CARTESIAN_POINT('',(12.55,0.0,17.0));
#450=AXIS2_PLACEMENT_3D('',#484,#485,#486);
#451=COLOUR_RGB('',0.752941191196442,0.752941191196442,0.752941191196442);
#452=CARTESIAN_POINT('',(-22.0,-5.38844591624835E-15,-13.5));
#453=AXIS2_PLACEMENT_3D('',#487,#488,#489);
#454=CARTESIAN_POINT('',(-22.5,0.0,-14.0));
#455=AXIS2_PLACEMENT_3D('',#490,#491,#492);
#456=COLOUR_RGB('',0.752941191196442,0.752941191196442,0.752941191196442);
#457=CARTESIAN_POINT('',(22.5,0.0,-17.0));
#458=AXIS2_PLACEMENT_3D('',#493,#494,#495);
#459=CARTESIAN_POINT('',(22.0,-5.38844591624835E-15,-17.5));
#460=AXIS2_PLACEMENT_3D('',#496,#497,#498);
#461=COLOUR_RGB('',0.752941191196442,0.752941191196442,0.752941191196442);
#462=CARTESIAN_POINT('',(13.05,0.0,-17.5));
#463=AXIS2_PLACEMENT_3D('',#499,#500,#501);
#464=COLOUR_RGB('',0.752941191196442,0.752941191196442,0.752941191196442);
#465=CARTESIAN_POINT('',(13.05,-3.19632814577459E-15,17.5));
#466=AXIS2_PLACEMENT_3D('',#502,#503,#504);
#467=COLOUR_RGB('',0.752941191196442,0.752941191196442,0.752941191196442);
#468=CARTESIAN_POINT('',(16.0,0.0,17.5));
#469=AXIS2_PLACEMENT_3D('',#505,#506,#507);
#470=COLOUR_RGB('',0.752941191196442,0.752941191196442,0.752941191196442);
#471=COLOUR_RGB('',0.752941191196442,0.752941191196442,0.752941191196442);
#472=COLOUR_RGB('',0.752941191196442,0.752941191196442,0.752941191196442);
#473=COLOUR_RGB('',0.752941191196442,0.752941191196442,0.752941191196442);
#474=COLOUR_RGB('',0.752941191196442,0.752941191196442,0.752941191196442);
#475=CARTESIAN_POINT('',(0.0,0.0,13.5));
#476=DIRECTION('',(0.0,0.0,1.0));
#477=DIRECTION('',(1.0,0.0,0.0));
#478=CARTESIAN_POINT('',(0.0,0.0,-13.5));
#479=DIRECTION('',(0.0,0.0,-1.0));
#480=DIRECTION('',(-1.0,0.0,0.0));
#481=CARTESIAN_POINT('',(0.0,0.0,-17.0));
#482=DIRECTION('',(0.0,0.0,1.0));
#483=DIRECTION('',(1.0,0.0,0.0));
#484=CARTESIAN_POINT('',(0.0,0.0,17.0));
#485=DIRECTION('',(0.0,0.0,1.0));
#486=DIRECTION('',(1.0,0.0,0.0));
#487=CARTESIAN_POINT('',(0.0,0.0,-13.5));
#488=DIRECTION('',(0.0,0.0,-1.0));
#489=DIRECTION('',(-1.0,0.0,0.0));
#490=CARTESIAN_POINT('',(0.0,0.0,-14.0));
#491=DIRECTION('',(0.0,0.0,-1.0));
#492=DIRECTION('',(-1.0,0.0,0.0));
#493=CARTESIAN_POINT('',(0.0,0.0,-17.0));
#494=DIRECTION('',(0.0,0.0,1.0));
#495=DIRECTION('',(1.0,0.0,0.0));
#496=CARTESIAN_POINT('',(0.0,0.0,-17.5));
#497=DIRECTION('',(0.0,0.0,1.0));
#498=DIRECTION('',(1.0,0.0,0.0));
#499=CARTESIAN_POINT('',(0.0,0.0,-17.5));
#500=DIRECTION('',(0.0,0.0,1.0));
#501=DIRECTION('',(1.0,0.0,0.0));
#502=CARTESIAN_POINT('',(0.0,0.0,17.5));
#503=DIRECTION('',(0.0,0.0,1.0));
#504=DIRECTION('',(1.0,0.0,0.0));
#505=CARTESIAN_POINT('',(0.0,0.0,17.5));
#506=DIRECTION('',(0.0,0.0,1.0));
#507=DIRECTION('',(1.0,0.0,0.0));
ENDSEC;
END-ISO-10303-21;
