ISO-10303-21;
HEADER;
FILE_DESCRIPTION(('STEP AP214'),'1');
FILE_NAME('doigt centrage.A.1.stp','2022-06-16T15:09:04',(' '),(' '),'Spatial InterOp 3D',' ',' ');
FILE_SCHEMA(('AUTOMOTIVE_DESIGN { 1 0 10303 214 1 1 1 1 }'));
ENDSEC;
DATA;
#1=MECHANICAL_DESIGN_GEOMETRIC_PRESENTATION_REPRESENTATION(' ',(#20,#21,#22,#23,#24,#25,#26,#27,#28,#29,#30),#6);
#2=PRODUCT_DEFINITION_CONTEXT('',#31,'design');
#3=APPLICATION_PROTOCOL_DEFINITION('INTERNATIONAL STANDARD','automotive_design',1994,#31);
#4=PRODUCT_CATEGORY_RELATIONSHIP('NONE','NONE',#32,#33);
#5=SHAPE_DEFINITION_REPRESENTATION(#34,#35);
#6= (GEOMETRIC_REPRESENTATION_CONTEXT(3)GLOBAL_UNCERTAINTY_ASSIGNED_CONTEXT((#38))GLOBAL_UNIT_ASSIGNED_CONTEXT((#40,#41,#42))REPRESENTATION_CONTEXT('NONE','WORKSPACE'));
#7=PROPERTY_DEFINITION_REPRESENTATION(#44,#45);
#8=GENERAL_PROPERTY_ASSOCIATION('','',#46,#44);
#9=PROPERTY_DEFINITION_REPRESENTATION(#47,#48);
#10=GENERAL_PROPERTY_ASSOCIATION('','',#49,#47);
#11=PROPERTY_DEFINITION_REPRESENTATION(#50,#51);
#12=GENERAL_PROPERTY_ASSOCIATION('','',#52,#50);
#13=PROPERTY_DEFINITION_REPRESENTATION(#53,#54);
#14=GENERAL_PROPERTY_ASSOCIATION('','',#55,#53);
#15=PROPERTY_DEFINITION_REPRESENTATION(#56,#57);
#16=GENERAL_PROPERTY_ASSOCIATION('','',#58,#56);
#20=STYLED_ITEM('',(#59),#60);
#21=STYLED_ITEM('',(#61),#62);
#22=STYLED_ITEM('',(#63),#64);
#23=STYLED_ITEM('',(#65),#66);
#24=STYLED_ITEM('',(#67),#68);
#25=STYLED_ITEM('',(#69),#70);
#26=STYLED_ITEM('',(#71),#72);
#27=STYLED_ITEM('',(#73),#74);
#28=STYLED_ITEM('',(#75),#76);
#29=STYLED_ITEM('',(#77),#78);
#30=STYLED_ITEM('',(#79),#80);
#31=APPLICATION_CONTEXT(' ');
#32=PRODUCT_CATEGORY('part','NONE');
#33=PRODUCT_RELATED_PRODUCT_CATEGORY('detail',' ',(#81));
#34=PRODUCT_DEFINITION_SHAPE('NONE','NONE',#82);
#35=ADVANCED_BREP_SHAPE_REPRESENTATION('doigt centrage',(#80,#83),#6);
#38=UNCERTAINTY_MEASURE_WITH_UNIT(LENGTH_MEASURE(0.001),#40,'','');
#40= (CONVERSION_BASED_UNIT('MILLIMETRE',#86)LENGTH_UNIT()NAMED_UNIT(#89));
#41= (NAMED_UNIT(#91)PLANE_ANGLE_UNIT()SI_UNIT($,.RADIAN.));
#42= (NAMED_UNIT(#91)SOLID_ANGLE_UNIT()SI_UNIT($,.STERADIAN.));
#44=PROPERTY_DEFINITION('PdmObjectId','',#82);
#45=REPRESENTATION('',(#97),#6);
#46=GENERAL_PROPERTY('','19_6f1c264c-5213-4e0b-b7f5-47e33e4c9f2a&2_327_13_12','');
#47=PROPERTY_DEFINITION('Type de Production','',#82);
#48=REPRESENTATION('',(#98),#6);
#49=GENERAL_PROPERTY('','Usinage','');
#50=PROPERTY_DEFINITION('Type de brut','',#82);
#51=REPRESENTATION('',(#99),#6);
#52=GENERAL_PROPERTY('','Non classifi\X2\00E9\X0\','');
#53=PROPERTY_DEFINITION('CreationDate','',#82);
#54=REPRESENTATION('',(#100),#6);
#55=GENERAL_PROPERTY('','29/04/2022 13:39:56','');
#56=PROPERTY_DEFINITION('Minor Revision','',#82);
#57=REPRESENTATION('',(#101),#6);
#58=GENERAL_PROPERTY('','1','');
#59=PRESENTATION_STYLE_ASSIGNMENT((#102));
#60=ADVANCED_FACE('',(#103,#104),#105,.F.);
#61=PRESENTATION_STYLE_ASSIGNMENT((#106));
#62=ADVANCED_FACE('',(#107,#108),#109,.F.);
#63=PRESENTATION_STYLE_ASSIGNMENT((#110));
#64=ADVANCED_FACE('',(#111,#112),#113,.F.);
#65=PRESENTATION_STYLE_ASSIGNMENT((#114));
#66=ADVANCED_FACE('',(#115,#116),#117,.T.);
#67=PRESENTATION_STYLE_ASSIGNMENT((#118));
#68=ADVANCED_FACE('',(#119),#120,.F.);
#69=PRESENTATION_STYLE_ASSIGNMENT((#121));
#70=ADVANCED_FACE('',(#122,#123),#124,.T.);
#71=PRESENTATION_STYLE_ASSIGNMENT((#125));
#72=ADVANCED_FACE('',(#126,#127),#128,.T.);
#73=PRESENTATION_STYLE_ASSIGNMENT((#129));
#74=ADVANCED_FACE('',(#130,#131),#132,.F.);
#75=PRESENTATION_STYLE_ASSIGNMENT((#133));
#76=ADVANCED_FACE('',(#134,#135),#136,.T.);
#77=PRESENTATION_STYLE_ASSIGNMENT((#137));
#78=ADVANCED_FACE('',(#138,#139),#140,.F.);
#79=PRESENTATION_STYLE_ASSIGNMENT((#141));
#80=MANIFOLD_SOLID_BREP('doigt centrage',#142);
#81=PRODUCT('doigt centrage','PU211.01','doigt centrage',(#143));
#82=PRODUCT_DEFINITION('','NONE',#144,#2);
#83=AXIS2_PLACEMENT_3D('',#145,#146,#147);
#86=LENGTH_MEASURE_WITH_UNIT(LENGTH_MEASURE(1.0),#148);
#89=DIMENSIONAL_EXPONENTS(1.0,0.0,0.0,0.0,0.0,0.0,0.0);
#91=DIMENSIONAL_EXPONENTS(0.0,0.0,0.0,0.0,0.0,0.0,0.0);
#97=VALUE_REPRESENTATION_ITEM('19_6f1c264c-5213-4e0b-b7f5-47e33e4c9f2a&2_327_13_12',0);
#98=VALUE_REPRESENTATION_ITEM('Usinage',0);
#99=VALUE_REPRESENTATION_ITEM('Non classifi\X2\00E9\X0\',0);
#100=VALUE_REPRESENTATION_ITEM('29/04/2022 13:39:56',0);
#101=VALUE_REPRESENTATION_ITEM('1',0);
#102=SURFACE_STYLE_USAGE(.BOTH.,#149);
#103=FACE_OUTER_BOUND('',#150,.T.);
#104=FACE_BOUND('',#151,.T.);
#105=CONICAL_SURFACE('',#152,866.025403784438,1.0471975511966);
#106=SURFACE_STYLE_USAGE(.BOTH.,#153);
#107=FACE_OUTER_BOUND('',#154,.T.);
#108=FACE_OUTER_BOUND('',#155,.T.);
#109=CYLINDRICAL_SURFACE('',#156,4.0);
#110=SURFACE_STYLE_USAGE(.BOTH.,#157);
#111=FACE_BOUND('',#158,.T.);
#112=FACE_OUTER_BOUND('',#159,.T.);
#113=CONICAL_SURFACE('',#160,4.5,0.785398163397448);
#114=SURFACE_STYLE_USAGE(.BOTH.,#161);
#115=FACE_BOUND('',#162,.T.);
#116=FACE_OUTER_BOUND('',#163,.T.);
#117=CONICAL_SURFACE('',#164,6.0,0.785398163397448);
#118=SURFACE_STYLE_USAGE(.BOTH.,#165);
#119=FACE_OUTER_BOUND('',#166,.T.);
#120=PLANE('',#167);
#121=SURFACE_STYLE_USAGE(.BOTH.,#168);
#122=FACE_BOUND('',#169,.T.);
#123=FACE_OUTER_BOUND('',#170,.T.);
#124=CONICAL_SURFACE('',#171,6.35,0.325495855236478);
#125=SURFACE_STYLE_USAGE(.BOTH.,#172);
#126=FACE_OUTER_BOUND('',#173,.T.);
#127=FACE_OUTER_BOUND('',#174,.T.);
#128=CYLINDRICAL_SURFACE('',#175,6.35);
#129=SURFACE_STYLE_USAGE(.BOTH.,#176);
#130=FACE_OUTER_BOUND('',#177,.T.);
#131=FACE_BOUND('',#178,.T.);
#132=PLANE('',#179);
#133=SURFACE_STYLE_USAGE(.BOTH.,#180);
#134=FACE_OUTER_BOUND('',#181,.T.);
#135=FACE_OUTER_BOUND('',#182,.T.);
#136=CYLINDRICAL_SURFACE('',#183,6.0);
#137=SURFACE_STYLE_USAGE(.BOTH.,#184);
#138=FACE_BOUND('',#185,.T.);
#139=FACE_OUTER_BOUND('',#186,.T.);
#140=PLANE('',#187);
#141=SURFACE_STYLE_USAGE(.BOTH.,#188);
#142=CLOSED_SHELL('',(#60,#62,#64,#66,#68,#70,#72,#74,#76,#78));
#143=PRODUCT_CONTEXT('',#31,'mechanical');
#144=PRODUCT_DEFINITION_FORMATION_WITH_SPECIFIED_SOURCE('A','NONE',#81,.NOT_KNOWN.);
#145=CARTESIAN_POINT('',(0.0,0.0,0.0));
#146=DIRECTION('',(0.0,0.0,1.0));
#147=DIRECTION('',(1.0,0.0,0.0));
#148= (NAMED_UNIT(#89)LENGTH_UNIT()SI_UNIT(.MILLI.,.METRE.));
#149=SURFACE_SIDE_STYLE('',(#190));
#150=EDGE_LOOP('',(#191));
#151=VERTEX_LOOP('',#192);
#152=AXIS2_PLACEMENT_3D('',#193,#194,#195);
#153=SURFACE_SIDE_STYLE('',(#196));
#154=EDGE_LOOP('',(#197));
#155=EDGE_LOOP('',(#198));
#156=AXIS2_PLACEMENT_3D('',#199,#200,#201);
#157=SURFACE_SIDE_STYLE('',(#202));
#158=EDGE_LOOP('',(#203));
#159=EDGE_LOOP('',(#204));
#160=AXIS2_PLACEMENT_3D('',#205,#206,#207);
#161=SURFACE_SIDE_STYLE('',(#208));
#162=EDGE_LOOP('',(#209));
#163=EDGE_LOOP('',(#210));
#164=AXIS2_PLACEMENT_3D('',#211,#212,#213);
#165=SURFACE_SIDE_STYLE('',(#214));
#166=EDGE_LOOP('',(#215));
#167=AXIS2_PLACEMENT_3D('',#216,#217,#218);
#168=SURFACE_SIDE_STYLE('',(#219));
#169=EDGE_LOOP('',(#220));
#170=EDGE_LOOP('',(#221));
#171=AXIS2_PLACEMENT_3D('',#222,#223,#224);
#172=SURFACE_SIDE_STYLE('',(#225));
#173=EDGE_LOOP('',(#226));
#174=EDGE_LOOP('',(#227));
#175=AXIS2_PLACEMENT_3D('',#228,#229,#230);
#176=SURFACE_SIDE_STYLE('',(#231));
#177=EDGE_LOOP('',(#232));
#178=EDGE_LOOP('',(#233));
#179=AXIS2_PLACEMENT_3D('',#234,#235,#236);
#180=SURFACE_SIDE_STYLE('',(#237));
#181=EDGE_LOOP('',(#238));
#182=EDGE_LOOP('',(#239));
#183=AXIS2_PLACEMENT_3D('',#240,#241,#242);
#184=SURFACE_SIDE_STYLE('',(#243));
#185=EDGE_LOOP('',(#244));
#186=EDGE_LOOP('',(#245));
#187=AXIS2_PLACEMENT_3D('',#246,#247,#248);
#188=SURFACE_SIDE_STYLE('',(#249));
#190=SURFACE_STYLE_FILL_AREA(#250);
#191=ORIENTED_EDGE('',*,*,#251,.F.);
#192=VERTEX_POINT('',#252);
#193=CARTESIAN_POINT('',(542.190598923242,0.0,0.0));
#194=DIRECTION('',(1.0,-0.0,0.0));
#195=DIRECTION('',(0.0,0.0,-1.0));
#196=SURFACE_STYLE_FILL_AREA(#253);
#197=ORIENTED_EDGE('',*,*,#254,.T.);
#198=ORIENTED_EDGE('',*,*,#251,.T.);
#199=CARTESIAN_POINT('',(0.0,0.0,0.0));
#200=DIRECTION('',(-1.0,0.0,0.0));
#201=DIRECTION('',(0.0,0.0,1.0));
#202=SURFACE_STYLE_FILL_AREA(#255);
#203=ORIENTED_EDGE('',*,*,#254,.F.);
#204=ORIENTED_EDGE('',*,*,#256,.F.);
#205=CARTESIAN_POINT('',(74.5,0.0,0.0));
#206=DIRECTION('',(1.0,-0.0,0.0));
#207=DIRECTION('',(0.0,0.0,-1.0));
#208=SURFACE_STYLE_FILL_AREA(#257);
#209=ORIENTED_EDGE('',*,*,#258,.F.);
#210=ORIENTED_EDGE('',*,*,#259,.F.);
#211=CARTESIAN_POINT('',(74.0,0.0,0.0));
#212=DIRECTION('',(-1.0,0.0,-0.0));
#213=DIRECTION('',(0.0,0.0,1.0));
#214=SURFACE_STYLE_FILL_AREA(#260);
#215=ORIENTED_EDGE('',*,*,#261,.T.);
#216=CARTESIAN_POINT('',(0.0,2.5,0.0));
#217=DIRECTION('',(1.0,0.0,0.0));
#218=DIRECTION('',(0.0,0.0,-1.0));
#219=SURFACE_STYLE_FILL_AREA(#262);
#220=ORIENTED_EDGE('',*,*,#261,.F.);
#221=ORIENTED_EDGE('',*,*,#263,.T.);
#222=CARTESIAN_POINT('',(4.0,0.0,0.0));
#223=DIRECTION('',(1.0,-0.0,0.0));
#224=DIRECTION('',(0.0,0.0,-1.0));
#225=SURFACE_STYLE_FILL_AREA(#264);
#226=ORIENTED_EDGE('',*,*,#263,.F.);
#227=ORIENTED_EDGE('',*,*,#265,.T.);
#228=CARTESIAN_POINT('',(0.0,0.0,0.0));
#229=DIRECTION('',(-1.0,0.0,0.0));
#230=DIRECTION('',(0.0,0.0,1.0));
#231=SURFACE_STYLE_FILL_AREA(#266);
#232=ORIENTED_EDGE('',*,*,#265,.F.);
#233=ORIENTED_EDGE('',*,*,#267,.T.);
#234=CARTESIAN_POINT('',(50.0,6.175,0.0));
#235=DIRECTION('',(-1.0,0.0,0.0));
#236=DIRECTION('',(0.0,0.0,1.0));
#237=SURFACE_STYLE_FILL_AREA(#268);
#238=ORIENTED_EDGE('',*,*,#259,.T.);
#239=ORIENTED_EDGE('',*,*,#267,.F.);
#240=CARTESIAN_POINT('',(0.0,0.0,0.0));
#241=DIRECTION('',(-1.0,0.0,0.0));
#242=DIRECTION('',(0.0,0.0,1.0));
#243=SURFACE_STYLE_FILL_AREA(#269);
#244=ORIENTED_EDGE('',*,*,#256,.T.);
#245=ORIENTED_EDGE('',*,*,#258,.T.);
#246=CARTESIAN_POINT('',(74.5,5.0,0.0));
#247=DIRECTION('',(-1.0,0.0,0.0));
#248=DIRECTION('',(0.0,0.0,1.0));
#249=SURFACE_STYLE_FILL_AREA(#270);
#250=FILL_AREA_STYLE('',(#271));
#251=EDGE_CURVE('',#272,#272,#273,.T.);
#252=CARTESIAN_POINT('',(42.1905989232415,8.67361737988404E-16,0.0));
#253=FILL_AREA_STYLE('',(#274));
#254=EDGE_CURVE('',#275,#275,#276,.F.);
#255=FILL_AREA_STYLE('',(#277));
#256=EDGE_CURVE('',#278,#278,#279,.T.);
#257=FILL_AREA_STYLE('',(#280));
#258=EDGE_CURVE('',#281,#281,#282,.F.);
#259=EDGE_CURVE('',#283,#283,#284,.T.);
#260=FILL_AREA_STYLE('',(#285));
#261=EDGE_CURVE('',#286,#286,#287,.T.);
#262=FILL_AREA_STYLE('',(#288));
#263=EDGE_CURVE('',#289,#289,#290,.T.);
#264=FILL_AREA_STYLE('',(#291));
#265=EDGE_CURVE('',#292,#292,#293,.T.);
#266=FILL_AREA_STYLE('',(#294));
#267=EDGE_CURVE('',#295,#295,#296,.T.);
#268=FILL_AREA_STYLE('',(#297));
#269=FILL_AREA_STYLE('',(#298));
#270=FILL_AREA_STYLE('',(#299));
#271=FILL_AREA_STYLE_COLOUR('',#300);
#272=VERTEX_POINT('',#301);
#273=CIRCLE('',#302,4.0);
#274=FILL_AREA_STYLE_COLOUR('',#303);
#275=VERTEX_POINT('',#304);
#276=CIRCLE('',#305,4.0);
#277=FILL_AREA_STYLE_COLOUR('',#306);
#278=VERTEX_POINT('',#307);
#279=CIRCLE('',#308,4.5);
#280=FILL_AREA_STYLE_COLOUR('',#309);
#281=VERTEX_POINT('',#310);
#282=CIRCLE('',#311,5.5);
#283=VERTEX_POINT('',#312);
#284=CIRCLE('',#313,6.0);
#285=FILL_AREA_STYLE_COLOUR('',#314);
#286=VERTEX_POINT('',#315);
#287=CIRCLE('',#316,5.0);
#288=FILL_AREA_STYLE_COLOUR('',#317);
#289=VERTEX_POINT('',#318);
#290=CIRCLE('',#319,6.35);
#291=FILL_AREA_STYLE_COLOUR('',#320);
#292=VERTEX_POINT('',#321);
#293=CIRCLE('',#322,6.35);
#294=FILL_AREA_STYLE_COLOUR('',#323);
#295=VERTEX_POINT('',#324);
#296=CIRCLE('',#325,6.0);
#297=FILL_AREA_STYLE_COLOUR('',#326);
#298=FILL_AREA_STYLE_COLOUR('',#327);
#299=FILL_AREA_STYLE_COLOUR('',#328);
#300=COLOUR_RGB('',0.752941191196442,0.752941191196442,0.752941191196442);
#301=CARTESIAN_POINT('',(44.5,0.0,4.0));
#302=AXIS2_PLACEMENT_3D('',#329,#330,#331);
#303=COLOUR_RGB('',0.752941191196442,0.752941191196442,0.752941191196442);
#304=CARTESIAN_POINT('',(74.0,-9.79717439317883E-16,4.0));
#305=AXIS2_PLACEMENT_3D('',#332,#333,#334);
#306=COLOUR_RGB('',0.752941191196442,0.752941191196442,0.752941191196442);
#307=CARTESIAN_POINT('',(74.5,0.0,4.5));
#308=AXIS2_PLACEMENT_3D('',#335,#336,#337);
#309=COLOUR_RGB('',0.752941191196442,0.752941191196442,0.752941191196442);
#310=CARTESIAN_POINT('',(74.5,-1.34711147906209E-15,5.5));
#311=AXIS2_PLACEMENT_3D('',#338,#339,#340);
#312=CARTESIAN_POINT('',(74.0,0.0,6.0));
#313=AXIS2_PLACEMENT_3D('',#341,#342,#343);
#314=COLOUR_RGB('',0.752941191196442,0.752941191196442,0.752941191196442);
#315=CARTESIAN_POINT('',(1.26329881885295E-15,0.0,5.0));
#316=AXIS2_PLACEMENT_3D('',#344,#345,#346);
#317=COLOUR_RGB('',0.752941191196442,0.752941191196442,0.752941191196442);
#318=CARTESIAN_POINT('',(4.0,0.0,6.35));
#319=AXIS2_PLACEMENT_3D('',#347,#348,#349);
#320=COLOUR_RGB('',0.752941191196442,0.752941191196442,0.752941191196442);
#321=CARTESIAN_POINT('',(50.0,0.0,6.35));
#322=AXIS2_PLACEMENT_3D('',#350,#351,#352);
#323=COLOUR_RGB('',0.752941191196442,0.752941191196442,0.752941191196442);
#324=CARTESIAN_POINT('',(50.0,0.0,6.0));
#325=AXIS2_PLACEMENT_3D('',#353,#354,#355);
#326=COLOUR_RGB('',0.752941191196442,0.752941191196442,0.752941191196442);
#327=COLOUR_RGB('',0.752941191196442,0.752941191196442,0.752941191196442);
#328=COLOUR_RGB('',0.752941191196442,0.752941191196442,0.752941191196442);
#329=CARTESIAN_POINT('',(44.5,0.0,0.0));
#330=DIRECTION('',(-1.0,0.0,0.0));
#331=DIRECTION('',(0.0,0.0,1.0));
#332=CARTESIAN_POINT('',(74.0,0.0,0.0));
#333=DIRECTION('',(-1.0,0.0,0.0));
#334=DIRECTION('',(0.0,0.0,1.0));
#335=CARTESIAN_POINT('',(74.5,0.0,0.0));
#336=DIRECTION('',(-1.0,0.0,0.0));
#337=DIRECTION('',(0.0,0.0,1.0));
#338=CARTESIAN_POINT('',(74.5,0.0,0.0));
#339=DIRECTION('',(-1.0,0.0,0.0));
#340=DIRECTION('',(0.0,0.0,1.0));
#341=CARTESIAN_POINT('',(74.0,0.0,0.0));
#342=DIRECTION('',(-1.0,0.0,0.0));
#343=DIRECTION('',(0.0,0.0,1.0));
#344=CARTESIAN_POINT('',(1.26329881885295E-15,0.0,0.0));
#345=DIRECTION('',(-1.0,0.0,0.0));
#346=DIRECTION('',(0.0,0.0,1.0));
#347=CARTESIAN_POINT('',(4.0,0.0,0.0));
#348=DIRECTION('',(-1.0,0.0,0.0));
#349=DIRECTION('',(0.0,0.0,1.0));
#350=CARTESIAN_POINT('',(50.0,0.0,0.0));
#351=DIRECTION('',(-1.0,0.0,0.0));
#352=DIRECTION('',(0.0,0.0,1.0));
#353=CARTESIAN_POINT('',(50.0,0.0,0.0));
#354=DIRECTION('',(-1.0,0.0,0.0));
#355=DIRECTION('',(0.0,0.0,1.0));
ENDSEC;
END-ISO-10303-21;
