ISO-10303-21;
HEADER;
/* Generated by software containing ST-Developer
 * from STEP Tools, Inc. (www.steptools.com) 
 */
/* OPTION: using custom renumber hook */

FILE_DESCRIPTION(
/* description */ ('STEP AP242',
'CAx-IF Rec.Pracs.---Representation and Presentation of Product Manufa
cturing Information (PMI)---4.0---2014-10-13',
'CAx-IF Rec.Pracs.---3D Tessellated Geometry---0.4---2014-09-14','2;1'),

/* implementation_level */ '2;1');

FILE_NAME(
/* name */ '6644a5141878830958c73ed3',
/* time_stamp */ '2024-05-15T12:05:41Z',
/* author */ (''),
/* organization */ (''),
/* preprocessor_version */ 'ST-DEVELOPER v20',
/* originating_system */ '  ',
/* authorisation */ '  ');

FILE_SCHEMA (('AP242_MANAGED_MODEL_BASED_3D_ENGINEERING_MIM_LF { 1 0 10303 442 1 1 4 }'));
ENDSEC;

DATA;
#10=SHAPE_REPRESENTATION_RELATIONSHIP('','',#279,#11);
#11=ADVANCED_BREP_SHAPE_REPRESENTATION('',(#277),#445);
#12=CYLINDRICAL_SURFACE('',#299,0.0015);
#13=CYLINDRICAL_SURFACE('',#300,0.0015);
#14=CYLINDRICAL_SURFACE('',#301,0.0015);
#15=CYLINDRICAL_SURFACE('',#302,0.0015);
#16=LINE('',#383,#40);
#17=LINE('',#386,#41);
#18=LINE('',#388,#42);
#19=LINE('',#390,#43);
#20=LINE('',#392,#44);
#21=LINE('',#394,#45);
#22=LINE('',#396,#46);
#23=LINE('',#402,#47);
#24=LINE('',#404,#48);
#25=LINE('',#406,#49);
#26=LINE('',#408,#50);
#27=LINE('',#410,#51);
#28=LINE('',#412,#52);
#29=LINE('',#414,#53);
#30=LINE('',#416,#54);
#31=LINE('',#418,#55);
#32=LINE('',#420,#56);
#33=LINE('',#422,#57);
#34=LINE('',#424,#58);
#35=LINE('',#430,#59);
#36=LINE('',#432,#60);
#37=LINE('',#434,#61);
#38=LINE('',#436,#62);
#39=LINE('',#437,#63);
#40=VECTOR('',#315,1.);
#41=VECTOR('',#316,1.);
#42=VECTOR('',#317,1.);
#43=VECTOR('',#318,1.);
#44=VECTOR('',#321,1.);
#45=VECTOR('',#322,1.);
#46=VECTOR('',#323,1.);
#47=VECTOR('',#330,1.);
#48=VECTOR('',#331,1.);
#49=VECTOR('',#332,1.);
#50=VECTOR('',#335,1.);
#51=VECTOR('',#336,1.);
#52=VECTOR('',#337,1.);
#53=VECTOR('',#340,1.);
#54=VECTOR('',#341,1.);
#55=VECTOR('',#342,1.);
#56=VECTOR('',#345,1.);
#57=VECTOR('',#346,1.);
#58=VECTOR('',#347,1.);
#59=VECTOR('',#354,1.);
#60=VECTOR('',#355,1.);
#61=VECTOR('',#356,1.);
#62=VECTOR('',#359,1.);
#63=VECTOR('',#360,1.);
#64=ORIENTED_EDGE('',*,*,#128,.F.);
#65=ORIENTED_EDGE('',*,*,#129,.F.);
#66=ORIENTED_EDGE('',*,*,#130,.F.);
#67=ORIENTED_EDGE('',*,*,#131,.F.);
#68=ORIENTED_EDGE('',*,*,#132,.T.);
#69=ORIENTED_EDGE('',*,*,#133,.F.);
#70=ORIENTED_EDGE('',*,*,#134,.F.);
#71=ORIENTED_EDGE('',*,*,#135,.T.);
#72=ORIENTED_EDGE('',*,*,#136,.T.);
#73=ORIENTED_EDGE('',*,*,#135,.F.);
#74=ORIENTED_EDGE('',*,*,#137,.F.);
#75=ORIENTED_EDGE('',*,*,#138,.T.);
#76=ORIENTED_EDGE('',*,*,#139,.F.);
#77=ORIENTED_EDGE('',*,*,#140,.F.);
#78=ORIENTED_EDGE('',*,*,#141,.F.);
#79=ORIENTED_EDGE('',*,*,#138,.F.);
#80=ORIENTED_EDGE('',*,*,#142,.T.);
#81=ORIENTED_EDGE('',*,*,#143,.T.);
#82=ORIENTED_EDGE('',*,*,#144,.T.);
#83=ORIENTED_EDGE('',*,*,#143,.F.);
#84=ORIENTED_EDGE('',*,*,#145,.F.);
#85=ORIENTED_EDGE('',*,*,#146,.T.);
#86=ORIENTED_EDGE('',*,*,#147,.T.);
#87=ORIENTED_EDGE('',*,*,#146,.F.);
#88=ORIENTED_EDGE('',*,*,#148,.F.);
#89=ORIENTED_EDGE('',*,*,#149,.T.);
#90=ORIENTED_EDGE('',*,*,#150,.T.);
#91=ORIENTED_EDGE('',*,*,#149,.F.);
#92=ORIENTED_EDGE('',*,*,#151,.F.);
#93=ORIENTED_EDGE('',*,*,#152,.T.);
#94=ORIENTED_EDGE('',*,*,#153,.F.);
#95=ORIENTED_EDGE('',*,*,#154,.F.);
#96=ORIENTED_EDGE('',*,*,#155,.F.);
#97=ORIENTED_EDGE('',*,*,#152,.F.);
#98=ORIENTED_EDGE('',*,*,#156,.T.);
#99=ORIENTED_EDGE('',*,*,#157,.T.);
#100=ORIENTED_EDGE('',*,*,#158,.F.);
#101=ORIENTED_EDGE('',*,*,#157,.F.);
#102=ORIENTED_EDGE('',*,*,#159,.T.);
#103=ORIENTED_EDGE('',*,*,#133,.T.);
#104=ORIENTED_EDGE('',*,*,#134,.T.);
#105=ORIENTED_EDGE('',*,*,#159,.F.);
#106=ORIENTED_EDGE('',*,*,#156,.F.);
#107=ORIENTED_EDGE('',*,*,#151,.T.);
#108=ORIENTED_EDGE('',*,*,#148,.T.);
#109=ORIENTED_EDGE('',*,*,#145,.T.);
#110=ORIENTED_EDGE('',*,*,#142,.F.);
#111=ORIENTED_EDGE('',*,*,#137,.T.);
#112=ORIENTED_EDGE('',*,*,#132,.F.);
#113=ORIENTED_EDGE('',*,*,#136,.F.);
#114=ORIENTED_EDGE('',*,*,#141,.T.);
#115=ORIENTED_EDGE('',*,*,#144,.F.);
#116=ORIENTED_EDGE('',*,*,#147,.F.);
#117=ORIENTED_EDGE('',*,*,#150,.F.);
#118=ORIENTED_EDGE('',*,*,#155,.T.);
#119=ORIENTED_EDGE('',*,*,#158,.T.);
#120=ORIENTED_EDGE('',*,*,#128,.T.);
#121=ORIENTED_EDGE('',*,*,#154,.T.);
#122=ORIENTED_EDGE('',*,*,#130,.T.);
#123=ORIENTED_EDGE('',*,*,#153,.T.);
#124=ORIENTED_EDGE('',*,*,#129,.T.);
#125=ORIENTED_EDGE('',*,*,#140,.T.);
#126=ORIENTED_EDGE('',*,*,#131,.T.);
#127=ORIENTED_EDGE('',*,*,#139,.T.);
#128=EDGE_CURVE('',#160,#160,#184,.T.);
#129=EDGE_CURVE('',#161,#161,#185,.T.);
#130=EDGE_CURVE('',#162,#162,#186,.T.);
#131=EDGE_CURVE('',#163,#163,#187,.T.);
#132=EDGE_CURVE('',#164,#165,#16,.T.);
#133=EDGE_CURVE('',#166,#165,#17,.T.);
#134=EDGE_CURVE('',#167,#166,#18,.T.);
#135=EDGE_CURVE('',#167,#164,#19,.T.);
#136=EDGE_CURVE('',#168,#164,#20,.T.);
#137=EDGE_CURVE('',#169,#167,#21,.T.);
#138=EDGE_CURVE('',#169,#168,#22,.T.);
#139=EDGE_CURVE('',#170,#170,#188,.T.);
#140=EDGE_CURVE('',#171,#171,#189,.T.);
#141=EDGE_CURVE('',#168,#172,#23,.T.);
#142=EDGE_CURVE('',#169,#173,#24,.T.);
#143=EDGE_CURVE('',#173,#172,#25,.T.);
#144=EDGE_CURVE('',#174,#172,#26,.T.);
#145=EDGE_CURVE('',#175,#173,#27,.T.);
#146=EDGE_CURVE('',#175,#174,#28,.T.);
#147=EDGE_CURVE('',#176,#174,#29,.T.);
#148=EDGE_CURVE('',#177,#175,#30,.T.);
#149=EDGE_CURVE('',#177,#176,#31,.T.);
#150=EDGE_CURVE('',#178,#176,#32,.T.);
#151=EDGE_CURVE('',#179,#177,#33,.T.);
#152=EDGE_CURVE('',#179,#178,#34,.T.);
#153=EDGE_CURVE('',#180,#180,#190,.T.);
#154=EDGE_CURVE('',#181,#181,#191,.T.);
#155=EDGE_CURVE('',#178,#182,#35,.T.);
#156=EDGE_CURVE('',#179,#183,#36,.T.);
#157=EDGE_CURVE('',#183,#182,#37,.T.);
#158=EDGE_CURVE('',#182,#165,#38,.T.);
#159=EDGE_CURVE('',#183,#166,#39,.T.);
#160=VERTEX_POINT('',#376);
#161=VERTEX_POINT('',#378);
#162=VERTEX_POINT('',#380);
#163=VERTEX_POINT('',#382);
#164=VERTEX_POINT('',#384);
#165=VERTEX_POINT('',#385);
#166=VERTEX_POINT('',#387);
#167=VERTEX_POINT('',#389);
#168=VERTEX_POINT('',#393);
#169=VERTEX_POINT('',#395);
#170=VERTEX_POINT('',#399);
#171=VERTEX_POINT('',#401);
#172=VERTEX_POINT('',#403);
#173=VERTEX_POINT('',#405);
#174=VERTEX_POINT('',#409);
#175=VERTEX_POINT('',#411);
#176=VERTEX_POINT('',#415);
#177=VERTEX_POINT('',#417);
#178=VERTEX_POINT('',#421);
#179=VERTEX_POINT('',#423);
#180=VERTEX_POINT('',#427);
#181=VERTEX_POINT('',#429);
#182=VERTEX_POINT('',#431);
#183=VERTEX_POINT('',#433);
#184=CIRCLE('',#282,0.0015);
#185=CIRCLE('',#283,0.0015);
#186=CIRCLE('',#284,0.0015);
#187=CIRCLE('',#285,0.0015);
#188=CIRCLE('',#288,0.0015);
#189=CIRCLE('',#289,0.0015);
#190=CIRCLE('',#294,0.0015);
#191=CIRCLE('',#295,0.0015);
#192=EDGE_LOOP('',(#64));
#193=EDGE_LOOP('',(#65));
#194=EDGE_LOOP('',(#66));
#195=EDGE_LOOP('',(#67));
#196=EDGE_LOOP('',(#68,#69,#70,#71));
#197=EDGE_LOOP('',(#72,#73,#74,#75));
#198=EDGE_LOOP('',(#76));
#199=EDGE_LOOP('',(#77));
#200=EDGE_LOOP('',(#78,#79,#80,#81));
#201=EDGE_LOOP('',(#82,#83,#84,#85));
#202=EDGE_LOOP('',(#86,#87,#88,#89));
#203=EDGE_LOOP('',(#90,#91,#92,#93));
#204=EDGE_LOOP('',(#94));
#205=EDGE_LOOP('',(#95));
#206=EDGE_LOOP('',(#96,#97,#98,#99));
#207=EDGE_LOOP('',(#100,#101,#102,#103));
#208=EDGE_LOOP('',(#104,#105,#106,#107,#108,#109,#110,#111));
#209=EDGE_LOOP('',(#112,#113,#114,#115,#116,#117,#118,#119));
#210=EDGE_LOOP('',(#120));
#211=EDGE_LOOP('',(#121));
#212=EDGE_LOOP('',(#122));
#213=EDGE_LOOP('',(#123));
#214=EDGE_LOOP('',(#124));
#215=EDGE_LOOP('',(#125));
#216=EDGE_LOOP('',(#126));
#217=EDGE_LOOP('',(#127));
#218=FACE_BOUND('',#192,.T.);
#219=FACE_BOUND('',#193,.T.);
#220=FACE_BOUND('',#194,.T.);
#221=FACE_BOUND('',#195,.T.);
#222=FACE_BOUND('',#196,.T.);
#223=FACE_BOUND('',#197,.T.);
#224=FACE_BOUND('',#198,.T.);
#225=FACE_BOUND('',#199,.T.);
#226=FACE_BOUND('',#200,.T.);
#227=FACE_BOUND('',#201,.T.);
#228=FACE_BOUND('',#202,.T.);
#229=FACE_BOUND('',#203,.T.);
#230=FACE_BOUND('',#204,.T.);
#231=FACE_BOUND('',#205,.T.);
#232=FACE_BOUND('',#206,.T.);
#233=FACE_BOUND('',#207,.T.);
#234=FACE_BOUND('',#208,.T.);
#235=FACE_BOUND('',#209,.T.);
#236=FACE_BOUND('',#210,.T.);
#237=FACE_BOUND('',#211,.T.);
#238=FACE_BOUND('',#212,.T.);
#239=FACE_BOUND('',#213,.T.);
#240=FACE_BOUND('',#214,.T.);
#241=FACE_BOUND('',#215,.T.);
#242=FACE_BOUND('',#216,.T.);
#243=FACE_BOUND('',#217,.T.);
#244=PLANE('',#281);
#245=PLANE('',#286);
#246=PLANE('',#287);
#247=PLANE('',#290);
#248=PLANE('',#291);
#249=PLANE('',#292);
#250=PLANE('',#293);
#251=PLANE('',#296);
#252=PLANE('',#297);
#253=PLANE('',#298);
#254=ADVANCED_FACE('',(#218,#219,#220,#221,#222),#244,.F.);
#255=ADVANCED_FACE('',(#223),#245,.F.);
#256=ADVANCED_FACE('',(#224,#225,#226),#246,.T.);
#257=ADVANCED_FACE('',(#227),#247,.F.);
#258=ADVANCED_FACE('',(#228),#248,.F.);
#259=ADVANCED_FACE('',(#229),#249,.F.);
#260=ADVANCED_FACE('',(#230,#231,#232),#250,.T.);
#261=ADVANCED_FACE('',(#233),#251,.T.);
#262=ADVANCED_FACE('',(#234),#252,.F.);
#263=ADVANCED_FACE('',(#235),#253,.T.);
#264=ADVANCED_FACE('',(#236,#237),#12,.F.);
#265=ADVANCED_FACE('',(#238,#239),#13,.F.);
#266=ADVANCED_FACE('',(#240,#241),#14,.F.);
#267=ADVANCED_FACE('',(#242,#243),#15,.F.);
#268=CLOSED_SHELL('',(#254,#255,#256,#257,#258,#259,#260,#261,#262,#263,
#264,#265,#266,#267));
#269=STYLED_ITEM('',(#270),#277);
#270=PRESENTATION_STYLE_ASSIGNMENT((#271));
#271=SURFACE_STYLE_USAGE(.BOTH.,#272);
#272=SURFACE_SIDE_STYLE('',(#273));
#273=SURFACE_STYLE_FILL_AREA(#274);
#274=FILL_AREA_STYLE('',(#275));
#275=FILL_AREA_STYLE_COLOUR('',#276);
#276=COLOUR_RGB('',1.,0.756862745098039,0.0549019607843137);
#277=MANIFOLD_SOLID_BREP('corps_paveH',#268);
#278=SHAPE_DEFINITION_REPRESENTATION(#450,#279);
#279=SHAPE_REPRESENTATION('corps_paveH',(#280),#445);
#280=AXIS2_PLACEMENT_3D('',#373,#303,#304);
#281=AXIS2_PLACEMENT_3D('',#374,#305,#306);
#282=AXIS2_PLACEMENT_3D('',#375,#307,#308);
#283=AXIS2_PLACEMENT_3D('',#377,#309,#310);
#284=AXIS2_PLACEMENT_3D('',#379,#311,#312);
#285=AXIS2_PLACEMENT_3D('',#381,#313,#314);
#286=AXIS2_PLACEMENT_3D('',#391,#319,#320);
#287=AXIS2_PLACEMENT_3D('',#397,#324,#325);
#288=AXIS2_PLACEMENT_3D('',#398,#326,#327);
#289=AXIS2_PLACEMENT_3D('',#400,#328,#329);
#290=AXIS2_PLACEMENT_3D('',#407,#333,#334);
#291=AXIS2_PLACEMENT_3D('',#413,#338,#339);
#292=AXIS2_PLACEMENT_3D('',#419,#343,#344);
#293=AXIS2_PLACEMENT_3D('',#425,#348,#349);
#294=AXIS2_PLACEMENT_3D('',#426,#350,#351);
#295=AXIS2_PLACEMENT_3D('',#428,#352,#353);
#296=AXIS2_PLACEMENT_3D('',#435,#357,#358);
#297=AXIS2_PLACEMENT_3D('',#438,#361,#362);
#298=AXIS2_PLACEMENT_3D('',#439,#363,#364);
#299=AXIS2_PLACEMENT_3D('',#440,#365,#366);
#300=AXIS2_PLACEMENT_3D('',#441,#367,#368);
#301=AXIS2_PLACEMENT_3D('',#442,#369,#370);
#302=AXIS2_PLACEMENT_3D('',#443,#371,#372);
#303=DIRECTION('',(0.,0.,1.));
#304=DIRECTION('',(1.,0.,0.));
#305=DIRECTION('',(2.77555756156289E-16,-1.,0.));
#306=DIRECTION('',(1.,2.77555756156289E-16,0.));
#307=DIRECTION('',(-2.77555756156289E-16,1.,0.));
#308=DIRECTION('',(-1.,-2.77555756156289E-16,0.));
#309=DIRECTION('',(-2.77555756156289E-16,1.,0.));
#310=DIRECTION('',(-1.,-2.77555756156289E-16,0.));
#311=DIRECTION('',(-2.77555756156289E-16,1.,0.));
#312=DIRECTION('',(-1.,-2.77555756156289E-16,0.));
#313=DIRECTION('',(-2.77555756156289E-16,1.,0.));
#314=DIRECTION('',(-1.,-2.77555756156289E-16,0.));
#315=DIRECTION('',(1.,2.77555756156289E-16,0.));
#316=DIRECTION('',(0.,0.,1.));
#317=DIRECTION('',(1.,2.77555756156289E-16,0.));
#318=DIRECTION('',(0.,0.,1.));
#319=DIRECTION('',(1.,0.,0.));
#320=DIRECTION('',(0.,0.,-1.));
#321=DIRECTION('',(0.,1.,0.));
#322=DIRECTION('',(0.,1.,0.));
#323=DIRECTION('',(0.,0.,1.));
#324=DIRECTION('',(1.79065662463122E-16,-1.,0.));
#325=DIRECTION('',(1.,1.79065662463122E-16,0.));
#326=DIRECTION('',(1.79065662463122E-16,-1.,0.));
#327=DIRECTION('',(1.,1.79065662463122E-16,0.));
#328=DIRECTION('',(1.79065662463122E-16,-1.,0.));
#329=DIRECTION('',(1.,1.79065662463122E-16,0.));
#330=DIRECTION('',(1.,1.79065662463122E-16,0.));
#331=DIRECTION('',(1.,1.79065662463122E-16,0.));
#332=DIRECTION('',(0.,0.,1.));
#333=DIRECTION('',(-1.,-1.56712785985236E-16,0.));
#334=DIRECTION('',(1.56712785985236E-16,-1.,0.));
#335=DIRECTION('',(1.56712785985236E-16,-1.,0.));
#336=DIRECTION('',(1.56712785985236E-16,-1.,0.));
#337=DIRECTION('',(0.,0.,1.));
#338=DIRECTION('',(-1.5420525757775E-16,1.,0.));
#339=DIRECTION('',(-1.,-1.5420525757775E-16,0.));
#340=DIRECTION('',(-1.,-1.5420525757775E-16,0.));
#341=DIRECTION('',(-1.,-1.5420525757775E-16,0.));
#342=DIRECTION('',(0.,0.,1.));
#343=DIRECTION('',(1.,1.56712785985236E-16,0.));
#344=DIRECTION('',(-1.56712785985236E-16,1.,0.));
#345=DIRECTION('',(-1.56712785985236E-16,1.,0.));
#346=DIRECTION('',(-1.56712785985236E-16,1.,0.));
#347=DIRECTION('',(0.,0.,1.));
#348=DIRECTION('',(1.79065662463122E-16,-1.,0.));
#349=DIRECTION('',(1.,1.79065662463122E-16,0.));
#350=DIRECTION('',(1.79065662463122E-16,-1.,0.));
#351=DIRECTION('',(1.,1.79065662463122E-16,0.));
#352=DIRECTION('',(1.79065662463122E-16,-1.,0.));
#353=DIRECTION('',(1.,1.79065662463122E-16,0.));
#354=DIRECTION('',(1.,1.79065662463122E-16,0.));
#355=DIRECTION('',(1.,1.79065662463122E-16,0.));
#356=DIRECTION('',(0.,0.,1.));
#357=DIRECTION('',(1.,0.,0.));
#358=DIRECTION('',(0.,0.,-1.));
#359=DIRECTION('',(0.,1.,0.));
#360=DIRECTION('',(0.,1.,0.));
#361=DIRECTION('',(0.,0.,1.));
#362=DIRECTION('',(1.,0.,0.));
#363=DIRECTION('',(0.,0.,1.));
#364=DIRECTION('',(1.,0.,0.));
#365=DIRECTION('',(1.79065662463122E-16,-1.,0.));
#366=DIRECTION('',(1.,1.79065662463122E-16,0.));
#367=DIRECTION('',(1.79065662463122E-16,-1.,0.));
#368=DIRECTION('',(1.,1.79065662463122E-16,0.));
#369=DIRECTION('',(1.79065662463122E-16,-1.,0.));
#370=DIRECTION('',(1.,1.79065662463122E-16,0.));
#371=DIRECTION('',(1.79065662463122E-16,-1.,0.));
#372=DIRECTION('',(1.,1.79065662463122E-16,0.));
#373=CARTESIAN_POINT('',(0.,0.,0.));
#374=CARTESIAN_POINT('',(0.00625,0.0227223611075682,0.097));
#375=CARTESIAN_POINT('',(0.0095,0.0227223611075682,0.1));
#376=CARTESIAN_POINT('',(0.008,0.0227223611075682,0.1));
#377=CARTESIAN_POINT('',(-0.0095,0.0227223611075682,0.109));
#378=CARTESIAN_POINT('',(-0.011,0.0227223611075682,0.109));
#379=CARTESIAN_POINT('',(0.0095,0.0227223611075682,0.109));
#380=CARTESIAN_POINT('',(0.008,0.0227223611075682,0.109));
#381=CARTESIAN_POINT('',(-0.0095,0.0227223611075682,0.1));
#382=CARTESIAN_POINT('',(-0.011,0.0227223611075682,0.1));
#383=CARTESIAN_POINT('',(0.00625,0.0227223611075682,0.112));
#384=CARTESIAN_POINT('',(-0.0125,0.0227223611075682,0.112));
#385=CARTESIAN_POINT('',(0.0125,0.0227223611075682,0.112));
#386=CARTESIAN_POINT('',(0.0125,0.0227223611075682,0.097));
#387=CARTESIAN_POINT('',(0.0125,0.0227223611075682,0.097));
#388=CARTESIAN_POINT('',(0.00625,0.0227223611075682,0.097));
#389=CARTESIAN_POINT('',(-0.0125,0.0227223611075682,0.097));
#390=CARTESIAN_POINT('',(-0.0125,0.0227223611075682,0.097));
#391=CARTESIAN_POINT('',(-0.0125,0.0152223611075682,0.097));
#392=CARTESIAN_POINT('',(-0.0125,0.0152223611075682,0.112));
#393=CARTESIAN_POINT('',(-0.0125,-0.00272236110756821,0.112));
#394=CARTESIAN_POINT('',(-0.0125,0.0152223611075682,0.097));
#395=CARTESIAN_POINT('',(-0.0125,-0.00272236110756821,0.097));
#396=CARTESIAN_POINT('',(-0.0125,-0.00272236110756821,0.097));
#397=CARTESIAN_POINT('',(-0.0076561805537841,-0.00272236110756821,0.097));
#398=CARTESIAN_POINT('',(-0.0095,-0.00272236110756821,0.1));
#399=CARTESIAN_POINT('',(-0.008,-0.00272236110756821,0.1));
#400=CARTESIAN_POINT('',(-0.0095,-0.00272236110756821,0.109));
#401=CARTESIAN_POINT('',(-0.008,-0.00272236110756821,0.109));
#402=CARTESIAN_POINT('',(-0.0076561805537841,-0.00272236110756821,0.112));
#403=CARTESIAN_POINT('',(-0.00281236110756821,-0.00272236110756821,0.112));
#404=CARTESIAN_POINT('',(-0.0076561805537841,-0.00272236110756821,0.097));
#405=CARTESIAN_POINT('',(-0.00281236110756821,-0.00272236110756821,0.097));
#406=CARTESIAN_POINT('',(-0.00281236110756821,-0.00272236110756821,0.097));
#407=CARTESIAN_POINT('',(-0.00281236110756821,4.4999999999999E-5,0.097));
#408=CARTESIAN_POINT('',(-0.00281236110756821,4.4999999999999E-5,0.112));
#409=CARTESIAN_POINT('',(-0.00281236110756821,0.00281236110756821,0.112));
#410=CARTESIAN_POINT('',(-0.00281236110756821,4.4999999999999E-5,0.097));
#411=CARTESIAN_POINT('',(-0.00281236110756821,0.00281236110756821,0.097));
#412=CARTESIAN_POINT('',(-0.00281236110756821,0.00281236110756821,0.097));
#413=CARTESIAN_POINT('',(-0.0014061805537841,0.00281236110756821,0.097));
#414=CARTESIAN_POINT('',(-0.0014061805537841,0.00281236110756821,0.112));
#415=CARTESIAN_POINT('',(0.00281236110756821,0.00281236110756821,0.112));
#416=CARTESIAN_POINT('',(-0.0014061805537841,0.00281236110756821,0.097));
#417=CARTESIAN_POINT('',(0.00281236110756821,0.00281236110756821,0.097));
#418=CARTESIAN_POINT('',(0.00281236110756821,0.00281236110756821,0.097));
#419=CARTESIAN_POINT('',(0.00281236110756821,4.49999999999994E-5,0.097));
#420=CARTESIAN_POINT('',(0.00281236110756821,4.49999999999994E-5,0.112));
#421=CARTESIAN_POINT('',(0.00281236110756821,-0.00272236110756821,0.112));
#422=CARTESIAN_POINT('',(0.00281236110756821,4.49999999999994E-5,0.097));
#423=CARTESIAN_POINT('',(0.00281236110756821,-0.00272236110756821,0.097));
#424=CARTESIAN_POINT('',(0.00281236110756821,-0.00272236110756821,0.097));
#425=CARTESIAN_POINT('',(0.00765618055378411,-0.00272236110756821,0.097));
#426=CARTESIAN_POINT('',(0.0095,-0.00272236110756821,0.109));
#427=CARTESIAN_POINT('',(0.011,-0.00272236110756821,0.109));
#428=CARTESIAN_POINT('',(0.0095,-0.00272236110756821,0.1));
#429=CARTESIAN_POINT('',(0.011,-0.00272236110756821,0.1));
#430=CARTESIAN_POINT('',(0.00765618055378411,-0.00272236110756821,0.112));
#431=CARTESIAN_POINT('',(0.0125,-0.00272236110756821,0.112));
#432=CARTESIAN_POINT('',(0.00765618055378411,-0.00272236110756821,0.097));
#433=CARTESIAN_POINT('',(0.0125,-0.00272236110756821,0.097));
#434=CARTESIAN_POINT('',(0.0125,-0.00272236110756821,0.097));
#435=CARTESIAN_POINT('',(0.0125,0.0152223611075682,0.097));
#436=CARTESIAN_POINT('',(0.0125,0.0152223611075682,0.112));
#437=CARTESIAN_POINT('',(0.0125,0.0152223611075682,0.097));
#438=CARTESIAN_POINT('',(0.,0.0168888194462159,0.097));
#439=CARTESIAN_POINT('',(0.,0.0168888194462159,0.112));
#440=CARTESIAN_POINT('',(0.0095,0.0122776388924318,0.1));
#441=CARTESIAN_POINT('',(0.0095,0.0122776388924318,0.109));
#442=CARTESIAN_POINT('',(-0.0095,0.0122776388924318,0.109));
#443=CARTESIAN_POINT('',(-0.0095,0.0122776388924318,0.1));
#444=MECHANICAL_DESIGN_GEOMETRIC_PRESENTATION_REPRESENTATION('',(#269),
#445);
#445=(
GEOMETRIC_REPRESENTATION_CONTEXT(3)
GLOBAL_UNCERTAINTY_ASSIGNED_CONTEXT((#446))
GLOBAL_UNIT_ASSIGNED_CONTEXT((#449,#448,#447))
REPRESENTATION_CONTEXT('corps_paveH','TOP_LEVEL_ASSEMBLY_PART')
);
#446=UNCERTAINTY_MEASURE_WITH_UNIT(LENGTH_MEASURE(5.E-6),#449,
'DISTANCE_ACCURACY_VALUE','Maximum Tolerance applied to model');
#447=(
NAMED_UNIT(*)
SI_UNIT($,.STERADIAN.)
SOLID_ANGLE_UNIT()
);
#448=(
NAMED_UNIT(*)
PLANE_ANGLE_UNIT()
SI_UNIT($,.RADIAN.)
);
#449=(
LENGTH_UNIT()
NAMED_UNIT(*)
SI_UNIT($,.METRE.)
);
#450=PRODUCT_DEFINITION_SHAPE('','',#451);
#451=PRODUCT_DEFINITION('','',#453,#452);
#452=PRODUCT_DEFINITION_CONTEXT('',#459,'design');
#453=PRODUCT_DEFINITION_FORMATION_WITH_SPECIFIED_SOURCE('','',#455,
 .NOT_KNOWN.);
#454=PRODUCT_RELATED_PRODUCT_CATEGORY('','',(#455));
#455=PRODUCT('corps_paveH','corps_paveH','corps_paveH',(#457));
#456=PRODUCT_CATEGORY('','');
#457=PRODUCT_CONTEXT('',#459,'mechanical');
#458=APPLICATION_PROTOCOL_DEFINITION('international standard',
'ap242_managed_model_based_3d_engineering',2011,#459);
#459=APPLICATION_CONTEXT('managed model based 3d engineering');
ENDSEC;
END-ISO-10303-21;
