ISO-10303-21;
HEADER;
/* Generated by software containing ST-Developer
 * from STEP Tools, Inc. (www.steptools.com) 
 */
/* OPTION: using custom schema-name function */

FILE_DESCRIPTION(
/* description */ (''),
/* implementation_level */ '2;1');

FILE_NAME(
/* name */ 'P2',
/* time_stamp */ '2024-03-02T05:55:47+01:00',
/* author */ (''),
/* organization */ (''),
/* preprocessor_version */ 'ST-DEVELOPER v16.5',
/* originating_system */ 'Rhino 7.34',
/* authorisation */ '');

FILE_SCHEMA (('CONFIG_CONTROL_DESIGN'));
ENDSEC;

DATA;
#10=SHAPE_REPRESENTATION_RELATIONSHIP('','',#252,#12);
#11=MANIFOLD_SOLID_BREP('Corps1',#13);
#12=ADVANCED_BREP_SHAPE_REPRESENTATION('brep_rep_0',(#11,#264),#251);
#13=CLOSED_SHELL('',(#14,#15,#16,#17,#18,#19,#20,#21,#22,#23));
#14=ADVANCED_FACE('',(#24),#160,.T.);
#15=ADVANCED_FACE('',(#25),#161,.T.);
#16=ADVANCED_FACE('',(#26),#156,.T.);
#17=ADVANCED_FACE('',(#27),#162,.T.);
#18=ADVANCED_FACE('',(#28),#163,.T.);
#19=ADVANCED_FACE('',(#29),#164,.F.);
#20=ADVANCED_FACE('',(#30),#157,.T.);
#21=ADVANCED_FACE('',(#31),#165,.T.);
#22=ADVANCED_FACE('',(#32),#158,.T.);
#23=ADVANCED_FACE('',(#33),#159,.T.);
#24=FACE_OUTER_BOUND('',#34,.T.);
#25=FACE_OUTER_BOUND('',#35,.T.);
#26=FACE_OUTER_BOUND('',#36,.T.);
#27=FACE_OUTER_BOUND('',#37,.T.);
#28=FACE_OUTER_BOUND('',#38,.T.);
#29=FACE_OUTER_BOUND('',#39,.T.);
#30=FACE_OUTER_BOUND('',#40,.T.);
#31=FACE_OUTER_BOUND('',#41,.T.);
#32=FACE_OUTER_BOUND('',#42,.T.);
#33=FACE_OUTER_BOUND('',#43,.T.);
#34=EDGE_LOOP('',(#44,#45,#46,#47));
#35=EDGE_LOOP('',(#48,#49,#50,#51,#52,#53,#54,#55));
#36=EDGE_LOOP('',(#56,#57,#58,#59));
#37=EDGE_LOOP('',(#60,#61,#62,#63));
#38=EDGE_LOOP('',(#64,#65,#66,#67));
#39=EDGE_LOOP('',(#68,#69,#70,#71,#72,#73,#74,#75));
#40=EDGE_LOOP('',(#76,#77,#78,#79));
#41=EDGE_LOOP('',(#80,#81,#82,#83));
#42=EDGE_LOOP('',(#84,#85,#86,#87));
#43=EDGE_LOOP('',(#88,#89,#90,#91));
#44=ORIENTED_EDGE('',*,*,#92,.T.);
#45=ORIENTED_EDGE('',*,*,#93,.T.);
#46=ORIENTED_EDGE('',*,*,#94,.T.);
#47=ORIENTED_EDGE('',*,*,#95,.T.);
#48=ORIENTED_EDGE('',*,*,#92,.F.);
#49=ORIENTED_EDGE('',*,*,#96,.T.);
#50=ORIENTED_EDGE('',*,*,#100,.T.);
#51=ORIENTED_EDGE('',*,*,#97,.T.);
#52=ORIENTED_EDGE('',*,*,#112,.T.);
#53=ORIENTED_EDGE('',*,*,#98,.T.);
#54=ORIENTED_EDGE('',*,*,#104,.T.);
#55=ORIENTED_EDGE('',*,*,#99,.T.);
#56=ORIENTED_EDGE('',*,*,#111,.F.);
#57=ORIENTED_EDGE('',*,*,#101,.F.);
#58=ORIENTED_EDGE('',*,*,#96,.F.);
#59=ORIENTED_EDGE('',*,*,#95,.F.);
#60=ORIENTED_EDGE('',*,*,#100,.F.);
#61=ORIENTED_EDGE('',*,*,#101,.T.);
#62=ORIENTED_EDGE('',*,*,#102,.T.);
#63=ORIENTED_EDGE('',*,*,#103,.T.);
#64=ORIENTED_EDGE('',*,*,#104,.F.);
#65=ORIENTED_EDGE('',*,*,#105,.T.);
#66=ORIENTED_EDGE('',*,*,#106,.T.);
#67=ORIENTED_EDGE('',*,*,#107,.T.);
#68=ORIENTED_EDGE('',*,*,#108,.F.);
#69=ORIENTED_EDGE('',*,*,#106,.F.);
#70=ORIENTED_EDGE('',*,*,#109,.F.);
#71=ORIENTED_EDGE('',*,*,#114,.F.);
#72=ORIENTED_EDGE('',*,*,#110,.F.);
#73=ORIENTED_EDGE('',*,*,#102,.F.);
#74=ORIENTED_EDGE('',*,*,#111,.T.);
#75=ORIENTED_EDGE('',*,*,#94,.F.);
#76=ORIENTED_EDGE('',*,*,#98,.F.);
#77=ORIENTED_EDGE('',*,*,#115,.F.);
#78=ORIENTED_EDGE('',*,*,#109,.T.);
#79=ORIENTED_EDGE('',*,*,#105,.F.);
#80=ORIENTED_EDGE('',*,*,#112,.F.);
#81=ORIENTED_EDGE('',*,*,#113,.T.);
#82=ORIENTED_EDGE('',*,*,#114,.T.);
#83=ORIENTED_EDGE('',*,*,#115,.T.);
#84=ORIENTED_EDGE('',*,*,#99,.F.);
#85=ORIENTED_EDGE('',*,*,#107,.F.);
#86=ORIENTED_EDGE('',*,*,#108,.T.);
#87=ORIENTED_EDGE('',*,*,#93,.F.);
#88=ORIENTED_EDGE('',*,*,#110,.T.);
#89=ORIENTED_EDGE('',*,*,#113,.F.);
#90=ORIENTED_EDGE('',*,*,#97,.F.);
#91=ORIENTED_EDGE('',*,*,#103,.F.);
#92=EDGE_CURVE('',#140,#141,#120,.T.);
#93=EDGE_CURVE('',#141,#142,#121,.T.);
#94=EDGE_CURVE('',#142,#143,#122,.T.);
#95=EDGE_CURVE('',#143,#140,#123,.T.);
#96=EDGE_CURVE('',#140,#144,#116,.T.);
#97=EDGE_CURVE('',#145,#146,#124,.T.);
#98=EDGE_CURVE('',#147,#148,#117,.T.);
#99=EDGE_CURVE('',#149,#141,#125,.T.);
#100=EDGE_CURVE('',#144,#145,#126,.T.);
#101=EDGE_CURVE('',#144,#150,#127,.T.);
#102=EDGE_CURVE('',#150,#151,#128,.T.);
#103=EDGE_CURVE('',#151,#145,#129,.T.);
#104=EDGE_CURVE('',#148,#149,#130,.T.);
#105=EDGE_CURVE('',#148,#152,#131,.T.);
#106=EDGE_CURVE('',#152,#153,#132,.T.);
#107=EDGE_CURVE('',#153,#149,#133,.T.);
#108=EDGE_CURVE('',#153,#142,#134,.T.);
#109=EDGE_CURVE('',#154,#152,#118,.T.);
#110=EDGE_CURVE('',#151,#155,#135,.T.);
#111=EDGE_CURVE('',#150,#143,#119,.T.);
#112=EDGE_CURVE('',#146,#147,#136,.T.);
#113=EDGE_CURVE('',#146,#155,#137,.T.);
#114=EDGE_CURVE('',#155,#154,#138,.T.);
#115=EDGE_CURVE('',#154,#147,#139,.T.);
#116=(
BOUNDED_CURVE()
B_SPLINE_CURVE(2,(#330,#331,#332),.UNSPECIFIED.,.F.,.F.)
B_SPLINE_CURVE_WITH_KNOTS((3,3),(0.,59.4855866382795),.UNSPECIFIED.)
CURVE()
GEOMETRIC_REPRESENTATION_ITEM()
RATIONAL_B_SPLINE_CURVE((1.,0.934936244275125,1.))
REPRESENTATION_ITEM('')
);
#117=(
BOUNDED_CURVE()
B_SPLINE_CURVE(2,(#335,#336,#337),.UNSPECIFIED.,.F.,.F.)
B_SPLINE_CURVE_WITH_KNOTS((3,3),(0.,59.4855866382795),.UNSPECIFIED.)
CURVE()
GEOMETRIC_REPRESENTATION_ITEM()
RATIONAL_B_SPLINE_CURVE((1.,0.934936244275126,1.))
REPRESENTATION_ITEM('')
);
#118=(
BOUNDED_CURVE()
B_SPLINE_CURVE(2,(#390,#391,#392),.UNSPECIFIED.,.F.,.F.)
B_SPLINE_CURVE_WITH_KNOTS((3,3),(-57.8393582818748,0.),.UNSPECIFIED.)
CURVE()
GEOMETRIC_REPRESENTATION_ITEM()
RATIONAL_B_SPLINE_CURVE((1.,0.935368778143542,1.))
REPRESENTATION_ITEM('')
);
#119=(
BOUNDED_CURVE()
B_SPLINE_CURVE(2,(#395,#396,#397),.UNSPECIFIED.,.F.,.F.)
B_SPLINE_CURVE_WITH_KNOTS((3,3),(0.,57.8393582818748),.UNSPECIFIED.)
CURVE()
GEOMETRIC_REPRESENTATION_ITEM()
RATIONAL_B_SPLINE_CURVE((1.,0.935368778143542,1.))
REPRESENTATION_ITEM('')
);
#120=B_SPLINE_CURVE_WITH_KNOTS('',3,(#306,#307,#308,#309,#310,#311,#312,
#313,#314,#315),.UNSPECIFIED.,.F.,.F.,(4,2,2,2,4),(0.,1.58142361507355,
3.162847230147,4.74350718182014,6.32416713349328),.UNSPECIFIED.);
#121=B_SPLINE_CURVE_WITH_KNOTS('',1,(#316,#317),.UNSPECIFIED.,.F.,.F.,(2,
2),(0.,2.00000000000006),.UNSPECIFIED.);
#122=B_SPLINE_CURVE_WITH_KNOTS('',3,(#318,#319,#320,#321,#322,#323,#324,
#325,#326,#327),.UNSPECIFIED.,.F.,.F.,(4,2,2,2,4),(0.,1.58066018689263,
3.16132037378516,4.7427829354843,6.32424549718355),.UNSPECIFIED.);
#123=B_SPLINE_CURVE_WITH_KNOTS('',1,(#328,#329),.UNSPECIFIED.,.F.,.F.,(2,
2),(0.,2.00244349602041),.UNSPECIFIED.);
#124=B_SPLINE_CURVE_WITH_KNOTS('',1,(#333,#334),.UNSPECIFIED.,.F.,.F.,(2,
2),(0.,202.),.UNSPECIFIED.);
#125=B_SPLINE_CURVE_WITH_KNOTS('',1,(#338,#339),.UNSPECIFIED.,.F.,.F.,(2,
2),(0.,202.),.UNSPECIFIED.);
#126=B_SPLINE_CURVE_WITH_KNOTS('',3,(#340,#341,#342,#343,#344,#345,#346,
#347,#348,#349),.UNSPECIFIED.,.F.,.F.,(4,2,2,2,4),(-6.32416713349327,-4.74274351841975,
-3.16131990334623,-1.58065995167311,0.),.UNSPECIFIED.);
#127=B_SPLINE_CURVE_WITH_KNOTS('',1,(#350,#351),.UNSPECIFIED.,.F.,.F.,(2,
2),(0.,2.00244349602041),.UNSPECIFIED.);
#128=B_SPLINE_CURVE_WITH_KNOTS('',3,(#352,#353,#354,#355,#356,#357,#358,
#359,#360,#361),.UNSPECIFIED.,.F.,.F.,(4,2,2,2,4),(0.,1.58146256169921,
3.16292512339844,4.74358531029099,6.32424549718355),.UNSPECIFIED.);
#129=B_SPLINE_CURVE_WITH_KNOTS('',1,(#362,#363),.UNSPECIFIED.,.F.,.F.,(2,
2),(0.,2.00000000000006),.UNSPECIFIED.);
#130=B_SPLINE_CURVE_WITH_KNOTS('',3,(#364,#365,#366,#367,#368,#369,#370,
#371,#372,#373),.UNSPECIFIED.,.F.,.F.,(4,2,2,2,4),(-6.32416713349313,-4.74274351841962,
-3.16131990334611,-1.580659951673,0.),.UNSPECIFIED.);
#131=B_SPLINE_CURVE_WITH_KNOTS('',1,(#374,#375),.UNSPECIFIED.,.F.,.F.,(2,
2),(0.,2.00244349602041),.UNSPECIFIED.);
#132=B_SPLINE_CURVE_WITH_KNOTS('',3,(#376,#377,#378,#379,#380,#381,#382,
#383,#384,#385),.UNSPECIFIED.,.F.,.F.,(4,2,2,2,4),(0.,1.58146256169925,
3.16292512339839,4.74358531029102,6.32424549718355),.UNSPECIFIED.);
#133=B_SPLINE_CURVE_WITH_KNOTS('',1,(#386,#387),.UNSPECIFIED.,.F.,.F.,(2,
2),(0.,2.00000000000006),.UNSPECIFIED.);
#134=B_SPLINE_CURVE_WITH_KNOTS('',1,(#388,#389),.UNSPECIFIED.,.F.,.F.,(2,
2),(-202.,0.),.UNSPECIFIED.);
#135=B_SPLINE_CURVE_WITH_KNOTS('',1,(#393,#394),.UNSPECIFIED.,.F.,.F.,(2,
2),(-202.,0.),.UNSPECIFIED.);
#136=B_SPLINE_CURVE_WITH_KNOTS('',3,(#398,#399,#400,#401,#402,#403,#404,
#405,#406,#407),.UNSPECIFIED.,.F.,.F.,(4,2,2,2,4),(-6.32416713349317,-4.74350718182005,
-3.16284723014698,-1.58142361507349,0.),.UNSPECIFIED.);
#137=B_SPLINE_CURVE_WITH_KNOTS('',1,(#408,#409),.UNSPECIFIED.,.F.,.F.,(2,
2),(0.,2.00000000000006),.UNSPECIFIED.);
#138=B_SPLINE_CURVE_WITH_KNOTS('',3,(#410,#411,#412,#413,#414,#415,#416,
#417,#418,#419),.UNSPECIFIED.,.F.,.F.,(4,2,2,2,4),(0.,1.58066018689256,
3.16132037378512,4.74278293548429,6.32424549718356),.UNSPECIFIED.);
#139=B_SPLINE_CURVE_WITH_KNOTS('',1,(#420,#421),.UNSPECIFIED.,.F.,.F.,(2,
2),(0.,2.00244349602041),.UNSPECIFIED.);
#140=VERTEX_POINT('',#290);
#141=VERTEX_POINT('',#291);
#142=VERTEX_POINT('',#292);
#143=VERTEX_POINT('',#293);
#144=VERTEX_POINT('',#294);
#145=VERTEX_POINT('',#295);
#146=VERTEX_POINT('',#296);
#147=VERTEX_POINT('',#297);
#148=VERTEX_POINT('',#298);
#149=VERTEX_POINT('',#299);
#150=VERTEX_POINT('',#300);
#151=VERTEX_POINT('',#301);
#152=VERTEX_POINT('',#302);
#153=VERTEX_POINT('',#303);
#154=VERTEX_POINT('',#304);
#155=VERTEX_POINT('',#305);
#156=PLANE('',#256);
#157=PLANE('',#260);
#158=PLANE('',#262);
#159=PLANE('',#263);
#160=CYLINDRICAL_SURFACE('',#254,3.99999999999897);
#161=CYLINDRICAL_SURFACE('',#255,81.9999999999996);
#162=CYLINDRICAL_SURFACE('',#257,3.99999999999884);
#163=CYLINDRICAL_SURFACE('',#258,3.99999999999919);
#164=CYLINDRICAL_SURFACE('',#259,80.0000000000001);
#165=CYLINDRICAL_SURFACE('',#261,3.99999999999897);
#166=SHAPE_DEFINITION_REPRESENTATION(#167,#252);
#167=PRODUCT_DEFINITION_SHAPE('Document','',#169);
#168=PRODUCT_DEFINITION_CONTEXT('3D Mechanical Parts',#241,'design');
#169=PRODUCT_DEFINITION('A','First version',#211,#168);
#170=DATE_TIME_ROLE('classification_date');
#171=DATE_TIME_ROLE('creation_date');
#172=APPLIED_DATE_AND_TIME_ASSIGNMENT(#196,#170,(#175));
#173=APPLIED_DATE_AND_TIME_ASSIGNMENT(#198,#171,(#169));
#174=SECURITY_CLASSIFICATION_LEVEL('unclassified');
#175=SECURITY_CLASSIFICATION('A','Security for version',#174);
#176=APPLIED_SECURITY_CLASSIFICATION_ASSIGNMENT(#175,(#211));
#177=APPROVAL_ROLE('Version approval');
#178=APPROVAL_ROLE('Version Security approval');
#179=APPROVAL_ROLE('Definition approval');
#180=APPROVAL_PERSON_ORGANIZATION(#229,#205,#177);
#181=APPROVAL_PERSON_ORGANIZATION(#230,#206,#178);
#182=APPROVAL_PERSON_ORGANIZATION(#233,#207,#179);
#183=COORDINATED_UNIVERSAL_TIME_OFFSET(5,0,.BEHIND.);
#184=LOCAL_TIME(0,0,0.,#183);
#185=LOCAL_TIME(0,0,0.,#183);
#186=LOCAL_TIME(0,0,0.,#183);
#187=LOCAL_TIME(0,0,0.,#183);
#188=LOCAL_TIME(0,0,0.,#183);
#189=CALENDAR_DATE(1999,1,1);
#190=CALENDAR_DATE(1999,1,1);
#191=CALENDAR_DATE(1999,1,1);
#192=CALENDAR_DATE(1999,1,1);
#193=CALENDAR_DATE(1999,1,1);
#194=DATE_AND_TIME(#189,#184);
#195=DATE_AND_TIME(#190,#185);
#196=DATE_AND_TIME(#191,#186);
#197=DATE_AND_TIME(#192,#187);
#198=DATE_AND_TIME(#193,#188);
#199=APPROVAL_DATE_TIME(#194,#205);
#200=APPROVAL_DATE_TIME(#195,#206);
#201=APPROVAL_DATE_TIME(#197,#207);
#202=APPROVAL_STATUS('not_yet_approved');
#203=APPROVAL_STATUS('not_yet_approved');
#204=APPROVAL_STATUS('approved');
#205=APPROVAL(#202,'Version approval');
#206=APPROVAL(#203,'Version Security approval');
#207=APPROVAL(#204,'Definition approval');
#208=APPLIED_APPROVAL_ASSIGNMENT(#205,(#211));
#209=APPLIED_APPROVAL_ASSIGNMENT(#206,(#175));
#210=APPLIED_APPROVAL_ASSIGNMENT(#207,(#169));
#211=PRODUCT_DEFINITION_FORMATION_WITH_SPECIFIED_SOURCE('A',
'First version',#243,.MADE.);
#212=PERSON_AND_ORGANIZATION_ROLE('design_owner');
#213=PERSON_AND_ORGANIZATION_ROLE('creator');
#214=PERSON_AND_ORGANIZATION_ROLE('design_supplier');
#215=PERSON_AND_ORGANIZATION_ROLE('classification_officer');
#216=PERSON_AND_ORGANIZATION_ROLE('creator');
#217=ORGANIZATION('STI','lab','lab');
#218=ORGANIZATION('STI','unknown','unknown');
#219=ORGANIZATION('STI','unknown','unknown');
#220=ORGANIZATION('STI','unknown','unknown');
#221=ORGANIZATION('STI','unknown','unknown');
#222=ORGANIZATION('STI','unknown','unknown');
#223=ORGANIZATION('STI','unknown','unknown');
#224=PERSON('1','Box','vc60',$,$,$);
#225=PERSON('2','last','first',$,$,$);
#226=PERSON('3','President','Mr.',$,$,$);
#227=PERSON_AND_ORGANIZATION(#224,#217);
#228=PERSON_AND_ORGANIZATION(#225,#218);
#229=PERSON_AND_ORGANIZATION(#226,#219);
#230=PERSON_AND_ORGANIZATION(#226,#220);
#231=PERSON_AND_ORGANIZATION(#226,#221);
#232=PERSON_AND_ORGANIZATION(#225,#222);
#233=PERSON_AND_ORGANIZATION(#226,#223);
#234=APPLIED_PERSON_AND_ORGANIZATION_ASSIGNMENT(#227,#212,(#243));
#235=APPLIED_PERSON_AND_ORGANIZATION_ASSIGNMENT(#228,#213,(#211));
#236=APPLIED_PERSON_AND_ORGANIZATION_ASSIGNMENT(#228,#214,(#211));
#237=APPLIED_PERSON_AND_ORGANIZATION_ASSIGNMENT(#231,#215,(#175));
#238=APPLIED_PERSON_AND_ORGANIZATION_ASSIGNMENT(#232,#216,(#169));
#239=PRODUCT_RELATED_PRODUCT_CATEGORY('detail','detail',(#243));
#240=APPLICATION_PROTOCOL_DEFINITION('International Standard',
'config_control_design',1994,#241);
#241=APPLICATION_CONTEXT(
'configuration controlled 3d designs of mechanical parts and assemblie
s');
#242=PRODUCT_CONTEXT('3D Mechanical Parts',#241,'mechanical');
#243=PRODUCT('Document','Document','',(#242));
#244=(
LENGTH_UNIT()
NAMED_UNIT(*)
SI_UNIT(.MILLI.,.METRE.)
);
#245=(
NAMED_UNIT(*)
PLANE_ANGLE_UNIT()
SI_UNIT($,.RADIAN.)
);
#246=DIMENSIONAL_EXPONENTS(0.,0.,0.,0.,0.,0.,0.);
#247=PLANE_ANGLE_MEASURE_WITH_UNIT(PLANE_ANGLE_MEASURE(0.01745329252),#245);
#248=(
CONVERSION_BASED_UNIT('DEGREES',#247)
NAMED_UNIT(#246)
PLANE_ANGLE_UNIT()
);
#249=(
NAMED_UNIT(*)
SI_UNIT($,.STERADIAN.)
SOLID_ANGLE_UNIT()
);
#250=UNCERTAINTY_MEASURE_WITH_UNIT(LENGTH_MEASURE(0.001),#244,
'DISTANCE_ACCURACY_VALUE',
'Maximum model space distance between geometric entities at asserted c
onnectivities');
#251=(
GEOMETRIC_REPRESENTATION_CONTEXT(3)
GLOBAL_UNCERTAINTY_ASSIGNED_CONTEXT((#250))
GLOBAL_UNIT_ASSIGNED_CONTEXT((#249,#248,#244))
REPRESENTATION_CONTEXT('ID1','3D')
);
#252=SHAPE_REPRESENTATION('Document',(#253,#264),#251);
#253=AXIS2_PLACEMENT_3D('',#279,#265,#266);
#254=AXIS2_PLACEMENT_3D('',#280,#267,$);
#255=AXIS2_PLACEMENT_3D('',#281,#268,$);
#256=AXIS2_PLACEMENT_3D('',#282,#269,$);
#257=AXIS2_PLACEMENT_3D('',#283,#270,$);
#258=AXIS2_PLACEMENT_3D('',#284,#271,$);
#259=AXIS2_PLACEMENT_3D('',#285,#272,$);
#260=AXIS2_PLACEMENT_3D('',#286,#273,$);
#261=AXIS2_PLACEMENT_3D('',#287,#274,$);
#262=AXIS2_PLACEMENT_3D('',#288,#275,$);
#263=AXIS2_PLACEMENT_3D('',#289,#276,$);
#264=AXIS2_PLACEMENT_3D('',#422,#277,#278);
#265=DIRECTION('',(0.,0.,1.));
#266=DIRECTION('',(1.,0.,0.));
#267=DIRECTION('',(-0.399999999999683,1.35400980879838E-14,-0.916515138991307));
#268=DIRECTION('',(0.,1.,0.));
#269=DIRECTION('',(0.,1.,0.));
#270=DIRECTION('',(0.399999999999697,-2.5376486889255E-15,-0.9165151389913));
#271=DIRECTION('',(-0.399999999999697,2.5376486889255E-15,-0.9165151389913));
#272=DIRECTION('',(0.,1.,0.));
#273=DIRECTION('',(0.,-1.,0.));
#274=DIRECTION('',(0.399999999999682,-1.23888872815833E-14,-0.916515138991307));
#275=DIRECTION('',(-0.916515138991176,-4.09790041451775E-16,0.399999999999981));
#276=DIRECTION('',(0.916515138991176,-4.07014483890212E-16,0.399999999999981));
#277=DIRECTION('',(0.,0.,1.));
#278=DIRECTION('',(1.,0.,0.));
#279=CARTESIAN_POINT('',(0.,0.,0.));
#280=CARTESIAN_POINT('',(1094.88078486306,80.9265027809253,28.2078938494111));
#281=CARTESIAN_POINT('',(1123.59512229878,-20.0734972190746,104.000706264252));
#282=CARTESIAN_POINT('',(1088.5612521254,84.9265027809254,30.5789053162254));
#283=CARTESIAN_POINT('',(1152.30945973449,80.9265027809254,28.207893849411));
#284=CARTESIAN_POINT('',(1094.88078486306,-121.073497219075,28.2078938494112));
#285=CARTESIAN_POINT('',(1123.59512229878,-20.0734972190746,104.000706264252));
#286=CARTESIAN_POINT('',(1088.5612521254,-125.073497219075,14.8864896747433));
#287=CARTESIAN_POINT('',(1152.3094597345,-121.073497219075,28.2078938494111));
#288=CARTESIAN_POINT('',(1091.73831502545,-141.393497219075,31.0075908994283));
#289=CARTESIAN_POINT('',(1156.53831502545,-141.393497219075,28.5183691125063));
#290=CARTESIAN_POINT('',(1094.50023048763,84.9265027809254,27.3359342336915));
#291=CARTESIAN_POINT('',(1090.79512229878,80.9265027809254,28.8464648669761));
#292=CARTESIAN_POINT('',(1091.59512229878,80.9265027809254,30.6794951449585));
#293=CARTESIAN_POINT('',(1095.30120788604,84.9265027809254,29.1712040127686));
#294=CARTESIAN_POINT('',(1152.69001410992,84.9265027809254,27.3359342336914));
#295=CARTESIAN_POINT('',(1156.39512229878,80.9265027809254,28.8464648669761));
#296=CARTESIAN_POINT('',(1156.39512229878,-121.073497219075,28.8464648669761));
#297=CARTESIAN_POINT('',(1152.69001410992,-125.073497219075,27.3359342336914));
#298=CARTESIAN_POINT('',(1094.50023048763,-125.073497219075,27.3359342336915));
#299=CARTESIAN_POINT('',(1090.79512229878,-121.073497219075,28.8464648669761));
#300=CARTESIAN_POINT('',(1151.88903671151,84.9265027809254,29.1712040127685));
#301=CARTESIAN_POINT('',(1155.59512229878,80.9265027809254,30.6794951449585));
#302=CARTESIAN_POINT('',(1095.30120788604,-125.073497219075,29.1712040127686));
#303=CARTESIAN_POINT('',(1091.59512229878,-121.073497219075,30.6794951449585));
#304=CARTESIAN_POINT('',(1151.88903671151,-125.073497219075,29.1712040127685));
#305=CARTESIAN_POINT('',(1155.59512229878,-121.073497219075,30.6794951449585));
#306=CARTESIAN_POINT('',(1094.50023048763,84.9265027809254,27.3359342336915));
#307=CARTESIAN_POINT('',(1094.03042542561,84.9265027809254,27.5142289978969));
#308=CARTESIAN_POINT('',(1093.53109407229,84.8262519351964,27.7091779824464));
#309=CARTESIAN_POINT('',(1092.61588178749,84.4181207678244,28.0762060148692));
#310=CARTESIAN_POINT('',(1092.19990558926,84.1102326247514,28.2480387629706));
#311=CARTESIAN_POINT('',(1091.54472166117,83.3997987609124,28.5229084502667));
#312=CARTESIAN_POINT('',(1091.26179024189,82.9500126299724,28.6442380633266));
#313=CARTESIAN_POINT('',(1090.88704341994,81.9644928324054,28.8061370609495));
#314=CARTESIAN_POINT('',(1090.79512229878,81.4287596972024,28.8464648669761));
#315=CARTESIAN_POINT('',(1090.79512229878,80.9265027809254,28.8464648669761));
#316=CARTESIAN_POINT('',(1090.79512229878,80.9265027809254,28.8464648669761));
#317=CARTESIAN_POINT('',(1091.59512229878,80.9265027809254,30.6794951449585));
#318=CARTESIAN_POINT('',(1091.59512229878,80.9265027809254,30.6794951449585));
#319=CARTESIAN_POINT('',(1091.59512229878,81.4287601015684,30.6794951449584));
#320=CARTESIAN_POINT('',(1091.68704166389,81.9644935901024,30.6391628514784));
#321=CARTESIAN_POINT('',(1092.06180392918,82.9500135148724,30.4772984656991));
#322=CARTESIAN_POINT('',(1092.34475519601,83.3997993927814,30.3560139865507));
#323=CARTESIAN_POINT('',(1093.00004751532,84.1102406899314,30.0813740714534));
#324=CARTESIAN_POINT('',(1093.41612173109,84.4181312684704,29.9097417734138));
#325=CARTESIAN_POINT('',(1094.33163607632,84.8262582042264,29.543393201281));
#326=CARTESIAN_POINT('',(1094.83117359194,84.9265027809254,29.3489295045625));
#327=CARTESIAN_POINT('',(1095.30120788604,84.9265027809254,29.1712040127686));
#328=CARTESIAN_POINT('',(1095.30120788604,84.9265027809254,29.1712040127686));
#329=CARTESIAN_POINT('',(1094.50023048763,84.9265027809254,27.3359342336915));
#330=CARTESIAN_POINT('',(1094.50023048763,84.9265027809254,27.3359342336914));
#331=CARTESIAN_POINT('',(1123.59512229878,84.9265027809254,16.2941909782001));
#332=CARTESIAN_POINT('',(1152.69001410992,84.9265027809254,27.3359342336914));
#333=CARTESIAN_POINT('',(1156.39512229878,80.9265027809254,28.8464648669761));
#334=CARTESIAN_POINT('',(1156.39512229878,-121.073497219075,28.8464648669761));
#335=CARTESIAN_POINT('',(1152.69001410992,-125.073497219075,27.3359342336914));
#336=CARTESIAN_POINT('',(1123.59512229878,-125.073497219075,16.2941909782001));
#337=CARTESIAN_POINT('',(1094.50023048763,-125.073497219075,27.3359342336914));
#338=CARTESIAN_POINT('',(1090.79512229878,-121.073497219075,28.8464648669761));
#339=CARTESIAN_POINT('',(1090.79512229878,80.9265027809254,28.8464648669761));
#340=CARTESIAN_POINT('',(1152.69001410992,84.9265027809254,27.3359342336914));
#341=CARTESIAN_POINT('',(1153.15981917195,84.9265027809254,27.5142289978968));
#342=CARTESIAN_POINT('',(1153.65915052527,84.8262519351964,27.7091779824463));
#343=CARTESIAN_POINT('',(1154.57436281006,84.4181207678244,28.076206014869));
#344=CARTESIAN_POINT('',(1154.99033900829,84.1102326247514,28.2480387629705));
#345=CARTESIAN_POINT('',(1155.64552293639,83.3997987609124,28.5229084502667));
#346=CARTESIAN_POINT('',(1155.92845435567,82.9500126299724,28.6442380633266));
#347=CARTESIAN_POINT('',(1156.30320117762,81.9644928324054,28.8061370609495));
#348=CARTESIAN_POINT('',(1156.39512229878,81.4287596972024,28.8464648669761));
#349=CARTESIAN_POINT('',(1156.39512229878,80.9265027809254,28.8464648669761));
#350=CARTESIAN_POINT('',(1152.69001410992,84.9265027809254,27.3359342336914));
#351=CARTESIAN_POINT('',(1151.88903671151,84.9265027809254,29.1712040127685));
#352=CARTESIAN_POINT('',(1151.88903671151,84.9265027809254,29.1712040127685));
#353=CARTESIAN_POINT('',(1152.35907100562,84.9265027809254,29.3489295045625));
#354=CARTESIAN_POINT('',(1152.85860852124,84.8262582042264,29.543393201281));
#355=CARTESIAN_POINT('',(1153.77412286646,84.4181312684704,29.9097417734137));
#356=CARTESIAN_POINT('',(1154.19019708224,84.1102406899314,30.0813740714535));
#357=CARTESIAN_POINT('',(1154.84548940154,83.3997993927814,30.3560139865508));
#358=CARTESIAN_POINT('',(1155.12844066837,82.9500135148724,30.4772984656991));
#359=CARTESIAN_POINT('',(1155.50320293367,81.9644935901024,30.6391628514783));
#360=CARTESIAN_POINT('',(1155.59512229878,81.4287601015684,30.6794951449585));
#361=CARTESIAN_POINT('',(1155.59512229878,80.9265027809254,30.6794951449585));
#362=CARTESIAN_POINT('',(1155.59512229878,80.9265027809254,30.6794951449585));
#363=CARTESIAN_POINT('',(1156.39512229878,80.9265027809254,28.8464648669761));
#364=CARTESIAN_POINT('',(1094.50023048763,-125.073497219075,27.3359342336915));
#365=CARTESIAN_POINT('',(1094.03042542561,-125.073497219075,27.5142289978969));
#366=CARTESIAN_POINT('',(1093.53109407229,-124.973246373345,27.7091779824464));
#367=CARTESIAN_POINT('',(1092.61588178749,-124.565115205973,28.0762060148691));
#368=CARTESIAN_POINT('',(1092.19990558926,-124.257227062901,28.2480387629706));
#369=CARTESIAN_POINT('',(1091.54472166117,-123.546793199061,28.5229084502667));
#370=CARTESIAN_POINT('',(1091.26179024189,-123.097007068122,28.6442380633266));
#371=CARTESIAN_POINT('',(1090.88704341994,-122.111487270554,28.8061370609495));
#372=CARTESIAN_POINT('',(1090.79512229878,-121.575754135352,28.8464648669761));
#373=CARTESIAN_POINT('',(1090.79512229878,-121.073497219075,28.8464648669761));
#374=CARTESIAN_POINT('',(1094.50023048763,-125.073497219075,27.3359342336915));
#375=CARTESIAN_POINT('',(1095.30120788604,-125.073497219075,29.1712040127686));
#376=CARTESIAN_POINT('',(1095.30120788604,-125.073497219075,29.1712040127686));
#377=CARTESIAN_POINT('',(1094.83117359194,-125.073497219075,29.3489295045625));
#378=CARTESIAN_POINT('',(1094.33163607632,-124.973252642376,29.543393201281));
#379=CARTESIAN_POINT('',(1093.41612173109,-124.56512570662,29.9097417734138));
#380=CARTESIAN_POINT('',(1093.00004751532,-124.257235128081,30.0813740714534));
#381=CARTESIAN_POINT('',(1092.34475519601,-123.546793830931,30.3560139865507));
#382=CARTESIAN_POINT('',(1092.06180392918,-123.097007953021,30.4772984656991));
#383=CARTESIAN_POINT('',(1091.68704166389,-122.111488028251,30.6391628514783));
#384=CARTESIAN_POINT('',(1091.59512229878,-121.575754539718,30.6794951449585));
#385=CARTESIAN_POINT('',(1091.59512229878,-121.073497219075,30.6794951449585));
#386=CARTESIAN_POINT('',(1091.59512229878,-121.073497219075,30.6794951449585));
#387=CARTESIAN_POINT('',(1090.79512229878,-121.073497219075,28.8464648669761));
#388=CARTESIAN_POINT('',(1091.59512229878,-121.073497219075,30.6794951449585));
#389=CARTESIAN_POINT('',(1091.59512229878,80.9265027809254,30.6794951449585));
#390=CARTESIAN_POINT('',(1151.88903671151,-125.073497219075,29.1712040127685));
#391=CARTESIAN_POINT('',(1123.59512229878,-125.073497219075,18.4729423818837));
#392=CARTESIAN_POINT('',(1095.30120788604,-125.073497219075,29.1712040127685));
#393=CARTESIAN_POINT('',(1155.59512229878,80.9265027809254,30.6794951449585));
#394=CARTESIAN_POINT('',(1155.59512229878,-121.073497219075,30.6794951449585));
#395=CARTESIAN_POINT('',(1151.88903671151,84.9265027809254,29.1712040127685));
#396=CARTESIAN_POINT('',(1123.59512229878,84.9265027809254,18.4729423818837));
#397=CARTESIAN_POINT('',(1095.30120788604,84.9265027809254,29.1712040127685));
#398=CARTESIAN_POINT('',(1156.39512229878,-121.073497219075,28.8464648669761));
#399=CARTESIAN_POINT('',(1156.39512229878,-121.575754135352,28.8464648669761));
#400=CARTESIAN_POINT('',(1156.30320117762,-122.111487270554,28.8061370609495));
#401=CARTESIAN_POINT('',(1155.92845435567,-123.097007068122,28.6442380633266));
#402=CARTESIAN_POINT('',(1155.64552293639,-123.546793199061,28.5229084502667));
#403=CARTESIAN_POINT('',(1154.99033900829,-124.257227062901,28.2480387629705));
#404=CARTESIAN_POINT('',(1154.57436281006,-124.565115205973,28.076206014869));
#405=CARTESIAN_POINT('',(1153.65915052527,-124.973246373345,27.7091779824463));
#406=CARTESIAN_POINT('',(1153.15981917195,-125.073497219075,27.5142289978968));
#407=CARTESIAN_POINT('',(1152.69001410992,-125.073497219075,27.3359342336914));
#408=CARTESIAN_POINT('',(1156.39512229878,-121.073497219075,28.8464648669761));
#409=CARTESIAN_POINT('',(1155.59512229878,-121.073497219075,30.6794951449585));
#410=CARTESIAN_POINT('',(1155.59512229878,-121.073497219075,30.6794951449585));
#411=CARTESIAN_POINT('',(1155.59512229878,-121.575754539718,30.6794951449585));
#412=CARTESIAN_POINT('',(1155.50320293367,-122.111488028251,30.6391628514783));
#413=CARTESIAN_POINT('',(1155.12844066837,-123.097007953021,30.4772984656991));
#414=CARTESIAN_POINT('',(1154.84548940154,-123.546793830931,30.3560139865508));
#415=CARTESIAN_POINT('',(1154.19019708224,-124.257235128081,30.0813740714535));
#416=CARTESIAN_POINT('',(1153.77412286646,-124.56512570662,29.9097417734137));
#417=CARTESIAN_POINT('',(1152.85860852124,-124.973252642376,29.543393201281));
#418=CARTESIAN_POINT('',(1152.35907100562,-125.073497219075,29.3489295045625));
#419=CARTESIAN_POINT('',(1151.88903671151,-125.073497219075,29.1712040127685));
#420=CARTESIAN_POINT('',(1151.88903671151,-125.073497219075,29.1712040127685));
#421=CARTESIAN_POINT('',(1152.69001410992,-125.073497219075,27.3359342336914));
#422=CARTESIAN_POINT('',(0.,0.,0.));
ENDSEC;
END-ISO-10303-21;
