ISO-10303-21;
HEADER;
/* Generated by software containing ST-Developer
 * from STEP Tools, Inc. (www.steptools.com) 
 */

FILE_DESCRIPTION(
/* description */ (''),
/* implementation_level */ '2;1');

FILE_NAME(
/* name */ 'Z-Axis_Z-Axis_Riser_Block.step',
/* time_stamp */ '2023-12-09T17:40:38+01:00',
/* author */ (''),
/* organization */ (''),
/* preprocessor_version */ 'ST-DEVELOPER v20',
/* originating_system */ 'Autodesk Translation Framework v12.14.0.127',

/* authorisation */ '');

FILE_SCHEMA (('AUTOMOTIVE_DESIGN { 1 0 10303 214 3 1 1 }'));
ENDSEC;

DATA;
#10=MECHANICAL_DESIGN_GEOMETRIC_PRESENTATION_REPRESENTATION('',(#13),#479);
#11=SHAPE_REPRESENTATION_RELATIONSHIP('SRR','None',#486,#12);
#12=ADVANCED_BREP_SHAPE_REPRESENTATION('',(#14),#478);
#13=STYLED_ITEM('',(#495),#14);
#14=MANIFOLD_SOLID_BREP('Z-Axis_Riser_Block',#275);
#15=FACE_BOUND('',#46,.T.);
#16=FACE_BOUND('',#47,.T.);
#17=FACE_BOUND('',#48,.T.);
#18=FACE_BOUND('',#49,.T.);
#19=FACE_BOUND('',#61,.T.);
#20=FACE_BOUND('',#62,.T.);
#21=FACE_BOUND('',#63,.T.);
#22=FACE_BOUND('',#64,.T.);
#23=PLANE('',#292);
#24=PLANE('',#293);
#25=PLANE('',#303);
#26=PLANE('',#306);
#27=PLANE('',#317);
#28=PLANE('',#318);
#29=FACE_OUTER_BOUND('',#43,.T.);
#30=FACE_OUTER_BOUND('',#44,.T.);
#31=FACE_OUTER_BOUND('',#45,.T.);
#32=FACE_OUTER_BOUND('',#50,.T.);
#33=FACE_OUTER_BOUND('',#51,.T.);
#34=FACE_OUTER_BOUND('',#52,.T.);
#35=FACE_OUTER_BOUND('',#53,.T.);
#36=FACE_OUTER_BOUND('',#54,.T.);
#37=FACE_OUTER_BOUND('',#55,.T.);
#38=FACE_OUTER_BOUND('',#56,.T.);
#39=FACE_OUTER_BOUND('',#57,.T.);
#40=FACE_OUTER_BOUND('',#58,.T.);
#41=FACE_OUTER_BOUND('',#59,.T.);
#42=FACE_OUTER_BOUND('',#60,.T.);
#43=EDGE_LOOP('',(#181,#182,#183,#184));
#44=EDGE_LOOP('',(#185,#186,#187,#188));
#45=EDGE_LOOP('',(#189,#190,#191,#192,#193,#194,#195,#196));
#46=EDGE_LOOP('',(#197));
#47=EDGE_LOOP('',(#198));
#48=EDGE_LOOP('',(#199));
#49=EDGE_LOOP('',(#200));
#50=EDGE_LOOP('',(#201,#202,#203,#204));
#51=EDGE_LOOP('',(#205,#206,#207,#208));
#52=EDGE_LOOP('',(#209,#210,#211,#212));
#53=EDGE_LOOP('',(#213,#214,#215,#216));
#54=EDGE_LOOP('',(#217,#218,#219,#220));
#55=EDGE_LOOP('',(#221,#222,#223,#224));
#56=EDGE_LOOP('',(#225,#226,#227,#228));
#57=EDGE_LOOP('',(#229,#230,#231,#232));
#58=EDGE_LOOP('',(#233,#234,#235,#236));
#59=EDGE_LOOP('',(#237,#238,#239,#240));
#60=EDGE_LOOP('',(#241,#242,#243,#244,#245,#246,#247,#248));
#61=EDGE_LOOP('',(#249));
#62=EDGE_LOOP('',(#250));
#63=EDGE_LOOP('',(#251));
#64=EDGE_LOOP('',(#252));
#65=LINE('',#407,#85);
#66=LINE('',#410,#86);
#67=LINE('',#413,#87);
#68=LINE('',#415,#88);
#69=LINE('',#416,#89);
#70=LINE('',#419,#90);
#71=LINE('',#423,#91);
#72=LINE('',#427,#92);
#73=LINE('',#439,#93);
#74=LINE('',#443,#94);
#75=LINE('',#444,#95);
#76=LINE('',#447,#96);
#77=LINE('',#451,#97);
#78=LINE('',#452,#98);
#79=LINE('',#455,#99);
#80=LINE('',#459,#100);
#81=LINE('',#463,#101);
#82=LINE('',#467,#102);
#83=LINE('',#471,#103);
#84=LINE('',#474,#104);
#85=VECTOR('',#325,10.);
#86=VECTOR('',#328,10.);
#87=VECTOR('',#331,10.);
#88=VECTOR('',#332,10.);
#89=VECTOR('',#333,10.);
#90=VECTOR('',#336,10.);
#91=VECTOR('',#339,10.);
#92=VECTOR('',#342,10.);
#93=VECTOR('',#355,10.);
#94=VECTOR('',#360,10.);
#95=VECTOR('',#361,10.);
#96=VECTOR('',#364,10.);
#97=VECTOR('',#369,10.);
#98=VECTOR('',#370,10.);
#99=VECTOR('',#373,10.);
#100=VECTOR('',#378,1.6);
#101=VECTOR('',#383,1.6);
#102=VECTOR('',#388,1.6);
#103=VECTOR('',#393,1.6);
#104=VECTOR('',#398,10.);
#105=CIRCLE('',#290,2.);
#106=CIRCLE('',#291,2.);
#107=CIRCLE('',#294,2.);
#108=CIRCLE('',#295,2.);
#109=CIRCLE('',#296,2.);
#110=CIRCLE('',#297,1.6);
#111=CIRCLE('',#298,1.6);
#112=CIRCLE('',#299,1.6);
#113=CIRCLE('',#300,1.6);
#114=CIRCLE('',#302,2.);
#115=CIRCLE('',#305,2.);
#116=CIRCLE('',#308,2.);
#117=CIRCLE('',#310,1.6);
#118=CIRCLE('',#312,1.6);
#119=CIRCLE('',#314,1.6);
#120=CIRCLE('',#316,1.6);
#121=VERTEX_POINT('',#403);
#122=VERTEX_POINT('',#404);
#123=VERTEX_POINT('',#406);
#124=VERTEX_POINT('',#408);
#125=VERTEX_POINT('',#412);
#126=VERTEX_POINT('',#414);
#127=VERTEX_POINT('',#418);
#128=VERTEX_POINT('',#420);
#129=VERTEX_POINT('',#422);
#130=VERTEX_POINT('',#424);
#131=VERTEX_POINT('',#426);
#132=VERTEX_POINT('',#429);
#133=VERTEX_POINT('',#431);
#134=VERTEX_POINT('',#433);
#135=VERTEX_POINT('',#435);
#136=VERTEX_POINT('',#438);
#137=VERTEX_POINT('',#442);
#138=VERTEX_POINT('',#446);
#139=VERTEX_POINT('',#450);
#140=VERTEX_POINT('',#454);
#141=VERTEX_POINT('',#458);
#142=VERTEX_POINT('',#462);
#143=VERTEX_POINT('',#466);
#144=VERTEX_POINT('',#470);
#145=EDGE_CURVE('',#121,#122,#105,.T.);
#146=EDGE_CURVE('',#122,#123,#65,.T.);
#147=EDGE_CURVE('',#123,#124,#106,.T.);
#148=EDGE_CURVE('',#124,#121,#66,.T.);
#149=EDGE_CURVE('',#122,#125,#67,.T.);
#150=EDGE_CURVE('',#126,#125,#68,.T.);
#151=EDGE_CURVE('',#126,#123,#69,.T.);
#152=EDGE_CURVE('',#127,#121,#70,.T.);
#153=EDGE_CURVE('',#128,#127,#107,.T.);
#154=EDGE_CURVE('',#128,#129,#71,.T.);
#155=EDGE_CURVE('',#130,#129,#108,.T.);
#156=EDGE_CURVE('',#130,#131,#72,.T.);
#157=EDGE_CURVE('',#125,#131,#109,.T.);
#158=EDGE_CURVE('',#132,#132,#110,.T.);
#159=EDGE_CURVE('',#133,#133,#111,.T.);
#160=EDGE_CURVE('',#134,#134,#112,.T.);
#161=EDGE_CURVE('',#135,#135,#113,.T.);
#162=EDGE_CURVE('',#131,#136,#73,.T.);
#163=EDGE_CURVE('',#136,#126,#114,.T.);
#164=EDGE_CURVE('',#137,#130,#74,.T.);
#165=EDGE_CURVE('',#136,#137,#75,.T.);
#166=EDGE_CURVE('',#129,#138,#76,.T.);
#167=EDGE_CURVE('',#138,#137,#115,.T.);
#168=EDGE_CURVE('',#139,#128,#77,.T.);
#169=EDGE_CURVE('',#138,#139,#78,.T.);
#170=EDGE_CURVE('',#127,#140,#79,.T.);
#171=EDGE_CURVE('',#140,#139,#116,.T.);
#172=EDGE_CURVE('',#132,#141,#80,.T.);
#173=EDGE_CURVE('',#141,#141,#117,.T.);
#174=EDGE_CURVE('',#133,#142,#81,.T.);
#175=EDGE_CURVE('',#142,#142,#118,.T.);
#176=EDGE_CURVE('',#135,#143,#82,.T.);
#177=EDGE_CURVE('',#143,#143,#119,.T.);
#178=EDGE_CURVE('',#134,#144,#83,.T.);
#179=EDGE_CURVE('',#144,#144,#120,.T.);
#180=EDGE_CURVE('',#124,#140,#84,.T.);
#181=ORIENTED_EDGE('',*,*,#145,.T.);
#182=ORIENTED_EDGE('',*,*,#146,.T.);
#183=ORIENTED_EDGE('',*,*,#147,.T.);
#184=ORIENTED_EDGE('',*,*,#148,.T.);
#185=ORIENTED_EDGE('',*,*,#146,.F.);
#186=ORIENTED_EDGE('',*,*,#149,.T.);
#187=ORIENTED_EDGE('',*,*,#150,.F.);
#188=ORIENTED_EDGE('',*,*,#151,.T.);
#189=ORIENTED_EDGE('',*,*,#145,.F.);
#190=ORIENTED_EDGE('',*,*,#152,.F.);
#191=ORIENTED_EDGE('',*,*,#153,.F.);
#192=ORIENTED_EDGE('',*,*,#154,.T.);
#193=ORIENTED_EDGE('',*,*,#155,.F.);
#194=ORIENTED_EDGE('',*,*,#156,.T.);
#195=ORIENTED_EDGE('',*,*,#157,.F.);
#196=ORIENTED_EDGE('',*,*,#149,.F.);
#197=ORIENTED_EDGE('',*,*,#158,.F.);
#198=ORIENTED_EDGE('',*,*,#159,.F.);
#199=ORIENTED_EDGE('',*,*,#160,.T.);
#200=ORIENTED_EDGE('',*,*,#161,.T.);
#201=ORIENTED_EDGE('',*,*,#157,.T.);
#202=ORIENTED_EDGE('',*,*,#162,.T.);
#203=ORIENTED_EDGE('',*,*,#163,.T.);
#204=ORIENTED_EDGE('',*,*,#150,.T.);
#205=ORIENTED_EDGE('',*,*,#162,.F.);
#206=ORIENTED_EDGE('',*,*,#156,.F.);
#207=ORIENTED_EDGE('',*,*,#164,.F.);
#208=ORIENTED_EDGE('',*,*,#165,.F.);
#209=ORIENTED_EDGE('',*,*,#155,.T.);
#210=ORIENTED_EDGE('',*,*,#166,.T.);
#211=ORIENTED_EDGE('',*,*,#167,.T.);
#212=ORIENTED_EDGE('',*,*,#164,.T.);
#213=ORIENTED_EDGE('',*,*,#166,.F.);
#214=ORIENTED_EDGE('',*,*,#154,.F.);
#215=ORIENTED_EDGE('',*,*,#168,.F.);
#216=ORIENTED_EDGE('',*,*,#169,.F.);
#217=ORIENTED_EDGE('',*,*,#153,.T.);
#218=ORIENTED_EDGE('',*,*,#170,.T.);
#219=ORIENTED_EDGE('',*,*,#171,.T.);
#220=ORIENTED_EDGE('',*,*,#168,.T.);
#221=ORIENTED_EDGE('',*,*,#158,.T.);
#222=ORIENTED_EDGE('',*,*,#172,.T.);
#223=ORIENTED_EDGE('',*,*,#173,.F.);
#224=ORIENTED_EDGE('',*,*,#172,.F.);
#225=ORIENTED_EDGE('',*,*,#159,.T.);
#226=ORIENTED_EDGE('',*,*,#174,.T.);
#227=ORIENTED_EDGE('',*,*,#175,.F.);
#228=ORIENTED_EDGE('',*,*,#174,.F.);
#229=ORIENTED_EDGE('',*,*,#161,.F.);
#230=ORIENTED_EDGE('',*,*,#176,.T.);
#231=ORIENTED_EDGE('',*,*,#177,.T.);
#232=ORIENTED_EDGE('',*,*,#176,.F.);
#233=ORIENTED_EDGE('',*,*,#160,.F.);
#234=ORIENTED_EDGE('',*,*,#178,.T.);
#235=ORIENTED_EDGE('',*,*,#179,.T.);
#236=ORIENTED_EDGE('',*,*,#178,.F.);
#237=ORIENTED_EDGE('',*,*,#148,.F.);
#238=ORIENTED_EDGE('',*,*,#180,.T.);
#239=ORIENTED_EDGE('',*,*,#170,.F.);
#240=ORIENTED_EDGE('',*,*,#152,.T.);
#241=ORIENTED_EDGE('',*,*,#147,.F.);
#242=ORIENTED_EDGE('',*,*,#151,.F.);
#243=ORIENTED_EDGE('',*,*,#163,.F.);
#244=ORIENTED_EDGE('',*,*,#165,.T.);
#245=ORIENTED_EDGE('',*,*,#167,.F.);
#246=ORIENTED_EDGE('',*,*,#169,.T.);
#247=ORIENTED_EDGE('',*,*,#171,.F.);
#248=ORIENTED_EDGE('',*,*,#180,.F.);
#249=ORIENTED_EDGE('',*,*,#173,.T.);
#250=ORIENTED_EDGE('',*,*,#175,.T.);
#251=ORIENTED_EDGE('',*,*,#179,.F.);
#252=ORIENTED_EDGE('',*,*,#177,.F.);
#253=CYLINDRICAL_SURFACE('',#289,2.);
#254=CYLINDRICAL_SURFACE('',#301,2.);
#255=CYLINDRICAL_SURFACE('',#304,2.);
#256=CYLINDRICAL_SURFACE('',#307,2.);
#257=CYLINDRICAL_SURFACE('',#309,1.6);
#258=CYLINDRICAL_SURFACE('',#311,1.6);
#259=CYLINDRICAL_SURFACE('',#313,1.6);
#260=CYLINDRICAL_SURFACE('',#315,1.6);
#261=ADVANCED_FACE('',(#29),#253,.T.);
#262=ADVANCED_FACE('',(#30),#23,.F.);
#263=ADVANCED_FACE('',(#31,#15,#16,#17,#18),#24,.T.);
#264=ADVANCED_FACE('',(#32),#254,.T.);
#265=ADVANCED_FACE('',(#33),#25,.T.);
#266=ADVANCED_FACE('',(#34),#255,.T.);
#267=ADVANCED_FACE('',(#35),#26,.T.);
#268=ADVANCED_FACE('',(#36),#256,.T.);
#269=ADVANCED_FACE('',(#37),#257,.F.);
#270=ADVANCED_FACE('',(#38),#258,.F.);
#271=ADVANCED_FACE('',(#39),#259,.F.);
#272=ADVANCED_FACE('',(#40),#260,.F.);
#273=ADVANCED_FACE('',(#41),#27,.T.);
#274=ADVANCED_FACE('',(#42,#19,#20,#21,#22),#28,.F.);
#275=CLOSED_SHELL('',(#261,#262,#263,#264,#265,#266,#267,#268,#269,#270,
#271,#272,#273,#274));
#276=DERIVED_UNIT_ELEMENT(#278,1.);
#277=DERIVED_UNIT_ELEMENT(#481,-3.);
#278=(
MASS_UNIT()
NAMED_UNIT(*)
SI_UNIT(.KILO.,.GRAM.)
);
#279=DERIVED_UNIT((#276,#277));
#280=MEASURE_REPRESENTATION_ITEM('density measure',
POSITIVE_RATIO_MEASURE(7850.),#279);
#281=PROPERTY_DEFINITION_REPRESENTATION(#286,#283);
#282=PROPERTY_DEFINITION_REPRESENTATION(#287,#284);
#283=REPRESENTATION('material name',(#285),#478);
#284=REPRESENTATION('density',(#280),#478);
#285=DESCRIPTIVE_REPRESENTATION_ITEM('Stahl','Stahl');
#286=PROPERTY_DEFINITION('material property','material name',#488);
#287=PROPERTY_DEFINITION('material property','density of part',#488);
#288=AXIS2_PLACEMENT_3D('',#401,#319,#320);
#289=AXIS2_PLACEMENT_3D('',#402,#321,#322);
#290=AXIS2_PLACEMENT_3D('',#405,#323,#324);
#291=AXIS2_PLACEMENT_3D('',#409,#326,#327);
#292=AXIS2_PLACEMENT_3D('',#411,#329,#330);
#293=AXIS2_PLACEMENT_3D('',#417,#334,#335);
#294=AXIS2_PLACEMENT_3D('',#421,#337,#338);
#295=AXIS2_PLACEMENT_3D('',#425,#340,#341);
#296=AXIS2_PLACEMENT_3D('',#428,#343,#344);
#297=AXIS2_PLACEMENT_3D('',#430,#345,#346);
#298=AXIS2_PLACEMENT_3D('',#432,#347,#348);
#299=AXIS2_PLACEMENT_3D('',#434,#349,#350);
#300=AXIS2_PLACEMENT_3D('',#436,#351,#352);
#301=AXIS2_PLACEMENT_3D('',#437,#353,#354);
#302=AXIS2_PLACEMENT_3D('',#440,#356,#357);
#303=AXIS2_PLACEMENT_3D('',#441,#358,#359);
#304=AXIS2_PLACEMENT_3D('',#445,#362,#363);
#305=AXIS2_PLACEMENT_3D('',#448,#365,#366);
#306=AXIS2_PLACEMENT_3D('',#449,#367,#368);
#307=AXIS2_PLACEMENT_3D('',#453,#371,#372);
#308=AXIS2_PLACEMENT_3D('',#456,#374,#375);
#309=AXIS2_PLACEMENT_3D('',#457,#376,#377);
#310=AXIS2_PLACEMENT_3D('',#460,#379,#380);
#311=AXIS2_PLACEMENT_3D('',#461,#381,#382);
#312=AXIS2_PLACEMENT_3D('',#464,#384,#385);
#313=AXIS2_PLACEMENT_3D('',#465,#386,#387);
#314=AXIS2_PLACEMENT_3D('',#468,#389,#390);
#315=AXIS2_PLACEMENT_3D('',#469,#391,#392);
#316=AXIS2_PLACEMENT_3D('',#472,#394,#395);
#317=AXIS2_PLACEMENT_3D('',#473,#396,#397);
#318=AXIS2_PLACEMENT_3D('',#475,#399,#400);
#319=DIRECTION('axis',(0.,0.,1.));
#320=DIRECTION('refdir',(1.,0.,0.));
#321=DIRECTION('center_axis',(1.,0.,0.));
#322=DIRECTION('ref_axis',(0.,0.707106781186523,0.707106781186572));
#323=DIRECTION('center_axis',(-1.,0.,0.));
#324=DIRECTION('ref_axis',(0.,0.707106781186523,0.707106781186572));
#325=DIRECTION('',(-1.,0.,0.));
#326=DIRECTION('center_axis',(1.,0.,0.));
#327=DIRECTION('ref_axis',(0.,0.707106781186523,0.707106781186572));
#328=DIRECTION('',(1.,0.,0.));
#329=DIRECTION('center_axis',(0.,-1.,-4.44854880901539E-14));
#330=DIRECTION('ref_axis',(0.,4.44854880901539E-14,-1.));
#331=DIRECTION('',(0.,4.44854880901539E-14,-1.));
#332=DIRECTION('',(1.,0.,0.));
#333=DIRECTION('',(0.,-4.44854880901539E-14,1.));
#334=DIRECTION('center_axis',(1.,0.,0.));
#335=DIRECTION('ref_axis',(0.,1.,0.));
#336=DIRECTION('',(0.,1.,-1.90848255472768E-14));
#337=DIRECTION('center_axis',(-1.,0.,0.));
#338=DIRECTION('ref_axis',(0.,-0.70710678118654,0.707106781186555));
#339=DIRECTION('',(0.,-4.44854880901539E-14,-1.));
#340=DIRECTION('center_axis',(-1.,0.,0.));
#341=DIRECTION('ref_axis',(0.,-0.707106781186577,-0.707106781186518));
#342=DIRECTION('',(0.,1.,-4.55099686127337E-14));
#343=DIRECTION('center_axis',(-1.,0.,0.));
#344=DIRECTION('ref_axis',(0.,0.707106781186545,-0.70710678118655));
#345=DIRECTION('center_axis',(1.,0.,0.));
#346=DIRECTION('ref_axis',(0.,-1.,0.));
#347=DIRECTION('center_axis',(1.,0.,0.));
#348=DIRECTION('ref_axis',(0.,-1.,0.));
#349=DIRECTION('center_axis',(-1.,0.,0.));
#350=DIRECTION('ref_axis',(0.,1.,0.));
#351=DIRECTION('center_axis',(-1.,0.,0.));
#352=DIRECTION('ref_axis',(0.,1.,0.));
#353=DIRECTION('center_axis',(1.,0.,0.));
#354=DIRECTION('ref_axis',(0.,0.707106781186545,-0.70710678118655));
#355=DIRECTION('',(-1.,0.,0.));
#356=DIRECTION('center_axis',(1.,0.,0.));
#357=DIRECTION('ref_axis',(0.,0.707106781186545,-0.70710678118655));
#358=DIRECTION('center_axis',(0.,-4.55099686127337E-14,-1.));
#359=DIRECTION('ref_axis',(0.,1.,-4.55099686127337E-14));
#360=DIRECTION('',(1.,0.,0.));
#361=DIRECTION('',(0.,-1.,4.55099686127337E-14));
#362=DIRECTION('center_axis',(1.,0.,0.));
#363=DIRECTION('ref_axis',(0.,-0.707106781186577,-0.707106781186518));
#364=DIRECTION('',(-1.,0.,0.));
#365=DIRECTION('center_axis',(1.,0.,0.));
#366=DIRECTION('ref_axis',(0.,-0.707106781186577,-0.707106781186518));
#367=DIRECTION('center_axis',(0.,-1.,4.44854880901539E-14));
#368=DIRECTION('ref_axis',(0.,-4.44854880901539E-14,-1.));
#369=DIRECTION('',(1.,0.,0.));
#370=DIRECTION('',(0.,4.44854880901539E-14,1.));
#371=DIRECTION('center_axis',(1.,0.,0.));
#372=DIRECTION('ref_axis',(0.,-0.70710678118654,0.707106781186555));
#373=DIRECTION('',(-1.,0.,0.));
#374=DIRECTION('center_axis',(1.,0.,0.));
#375=DIRECTION('ref_axis',(0.,-0.70710678118654,0.707106781186555));
#376=DIRECTION('center_axis',(-1.,0.,0.));
#377=DIRECTION('ref_axis',(0.,-1.,0.));
#378=DIRECTION('',(-1.,0.,0.));
#379=DIRECTION('center_axis',(1.,0.,0.));
#380=DIRECTION('ref_axis',(0.,-1.,0.));
#381=DIRECTION('center_axis',(-1.,0.,0.));
#382=DIRECTION('ref_axis',(0.,-1.,0.));
#383=DIRECTION('',(-1.,0.,0.));
#384=DIRECTION('center_axis',(1.,0.,0.));
#385=DIRECTION('ref_axis',(0.,-1.,0.));
#386=DIRECTION('center_axis',(1.,0.,0.));
#387=DIRECTION('ref_axis',(0.,1.,0.));
#388=DIRECTION('',(-1.,0.,0.));
#389=DIRECTION('center_axis',(-1.,0.,0.));
#390=DIRECTION('ref_axis',(0.,1.,0.));
#391=DIRECTION('center_axis',(1.,0.,0.));
#392=DIRECTION('ref_axis',(0.,1.,0.));
#393=DIRECTION('',(-1.,0.,0.));
#394=DIRECTION('center_axis',(-1.,0.,0.));
#395=DIRECTION('ref_axis',(0.,1.,0.));
#396=DIRECTION('center_axis',(0.,-1.90848255472768E-14,1.));
#397=DIRECTION('ref_axis',(0.,-1.,-1.90848255472768E-14));
#398=DIRECTION('',(0.,-1.,1.90848255472768E-14));
#399=DIRECTION('center_axis',(1.,0.,0.));
#400=DIRECTION('ref_axis',(0.,1.,0.));
#401=CARTESIAN_POINT('',(0.,0.,0.));
#402=CARTESIAN_POINT('Origin',(6.,16.1499999999988,77.5000000000004));
#403=CARTESIAN_POINT('',(12.,16.1499999999987,79.4999999999998));
#404=CARTESIAN_POINT('',(12.,18.1499999999988,77.5000000000005));
#405=CARTESIAN_POINT('Origin',(12.,16.1499999999988,77.5000000000004));
#406=CARTESIAN_POINT('',(6.,18.1499999999988,77.5000000000005));
#407=CARTESIAN_POINT('',(6.,18.1499999999988,77.5000000000005));
#408=CARTESIAN_POINT('',(6.,16.1499999999987,79.4999999999998));
#409=CARTESIAN_POINT('Origin',(6.,16.1499999999988,77.5000000000004));
#410=CARTESIAN_POINT('',(6.,16.1499999999987,79.5000000000004));
#411=CARTESIAN_POINT('Origin',(6.,18.1499999999987,79.4999999999998));
#412=CARTESIAN_POINT('',(12.,18.1499999999999,52.499999999999));
#413=CARTESIAN_POINT('',(12.,18.15,50.5000000000005));
#414=CARTESIAN_POINT('',(6.,18.1499999999999,52.499999999999));
#415=CARTESIAN_POINT('',(6.,18.1499999999999,52.499999999999));
#416=CARTESIAN_POINT('',(6.,18.15,50.5000000000005));
#417=CARTESIAN_POINT('Origin',(12.,-9.07499999999998,64.9999999999999));
#418=CARTESIAN_POINT('',(12.,-16.1499999999988,79.5000000000004));
#419=CARTESIAN_POINT('',(12.,18.1499999999987,79.4999999999998));
#420=CARTESIAN_POINT('',(12.,-18.1499999999988,77.4999999999999));
#421=CARTESIAN_POINT('Origin',(12.,-16.1499999999988,77.4999999999998));
#422=CARTESIAN_POINT('',(12.,-18.1499999999999,52.5000000000005));
#423=CARTESIAN_POINT('',(12.,-18.15,50.5000000000005));
#424=CARTESIAN_POINT('',(12.,-16.15,50.5000000000004));
#425=CARTESIAN_POINT('Origin',(12.,-16.1499999999999,52.5000000000004));
#426=CARTESIAN_POINT('',(12.,16.1499999999998,50.4999999999989));
#427=CARTESIAN_POINT('',(12.,1.67375833584554E-14,50.4999999999997));
#428=CARTESIAN_POINT('Origin',(12.,16.1499999999999,52.4999999999989));
#429=CARTESIAN_POINT('',(12.,11.5999999999999,75.));
#430=CARTESIAN_POINT('Origin',(12.,9.99999999999994,75.));
#431=CARTESIAN_POINT('',(12.,11.5999999999999,55.));
#432=CARTESIAN_POINT('Origin',(12.,9.99999999999994,55.));
#433=CARTESIAN_POINT('',(12.,-11.5999999999999,55.));
#434=CARTESIAN_POINT('Origin',(12.,-9.99999999999994,55.));
#435=CARTESIAN_POINT('',(12.,-11.5999999999999,75.));
#436=CARTESIAN_POINT('Origin',(12.,-9.99999999999994,75.));
#437=CARTESIAN_POINT('Origin',(6.,16.1499999999999,52.4999999999989));
#438=CARTESIAN_POINT('',(6.,16.1499999999998,50.4999999999989));
#439=CARTESIAN_POINT('',(6.,16.1499999999998,50.4999999999989));
#440=CARTESIAN_POINT('Origin',(6.,16.1499999999999,52.4999999999989));
#441=CARTESIAN_POINT('Origin',(6.,-18.15,50.5000000000005));
#442=CARTESIAN_POINT('',(6.,-16.15,50.5000000000004));
#443=CARTESIAN_POINT('',(6.,-16.15,50.5000000000004));
#444=CARTESIAN_POINT('',(6.,1.67375833584554E-14,50.4999999999997));
#445=CARTESIAN_POINT('Origin',(6.,-16.1499999999999,52.5000000000004));
#446=CARTESIAN_POINT('',(6.,-18.1499999999999,52.5000000000005));
#447=CARTESIAN_POINT('',(6.,-18.1499999999999,52.5000000000005));
#448=CARTESIAN_POINT('Origin',(6.,-16.1499999999999,52.5000000000004));
#449=CARTESIAN_POINT('Origin',(6.,-18.1499999999987,79.4999999999998));
#450=CARTESIAN_POINT('',(6.,-18.1499999999988,77.4999999999999));
#451=CARTESIAN_POINT('',(6.,-18.1499999999988,77.4999999999999));
#452=CARTESIAN_POINT('',(6.,-18.15,50.5000000000005));
#453=CARTESIAN_POINT('Origin',(6.,-16.1499999999988,77.4999999999998));
#454=CARTESIAN_POINT('',(6.,-16.1499999999988,79.5000000000004));
#455=CARTESIAN_POINT('',(6.,-16.1499999999988,79.4999999999998));
#456=CARTESIAN_POINT('Origin',(6.,-16.1499999999988,77.4999999999998));
#457=CARTESIAN_POINT('Origin',(6.,9.99999999999994,75.));
#458=CARTESIAN_POINT('',(6.,11.5999999999999,75.));
#459=CARTESIAN_POINT('',(6.,11.5999999999999,75.));
#460=CARTESIAN_POINT('Origin',(6.,9.99999999999994,75.));
#461=CARTESIAN_POINT('Origin',(6.,9.99999999999994,55.));
#462=CARTESIAN_POINT('',(6.,11.5999999999999,55.));
#463=CARTESIAN_POINT('',(6.,11.5999999999999,55.));
#464=CARTESIAN_POINT('Origin',(6.,9.99999999999994,55.));
#465=CARTESIAN_POINT('Origin',(6.,-9.99999999999994,75.));
#466=CARTESIAN_POINT('',(6.,-11.5999999999999,75.));
#467=CARTESIAN_POINT('',(6.,-11.5999999999999,75.));
#468=CARTESIAN_POINT('Origin',(6.,-9.99999999999994,75.));
#469=CARTESIAN_POINT('Origin',(6.,-9.99999999999994,55.));
#470=CARTESIAN_POINT('',(6.,-11.5999999999999,55.));
#471=CARTESIAN_POINT('',(6.,-11.5999999999999,55.));
#472=CARTESIAN_POINT('Origin',(6.,-9.99999999999994,55.));
#473=CARTESIAN_POINT('Origin',(6.,2.66453525910038E-14,79.5000000000001));
#474=CARTESIAN_POINT('',(6.,18.1499999999987,79.4999999999998));
#475=CARTESIAN_POINT('Origin',(6.,-9.07499999999998,64.9999999999999));
#476=UNCERTAINTY_MEASURE_WITH_UNIT(LENGTH_MEASURE(0.01),#480,
'DISTANCE_ACCURACY_VALUE',
'Maximum model space distance between geometric entities at asserted c
onnectivities');
#477=UNCERTAINTY_MEASURE_WITH_UNIT(LENGTH_MEASURE(0.01),#480,
'DISTANCE_ACCURACY_VALUE',
'Maximum model space distance between geometric entities at asserted c
onnectivities');
#478=(
GEOMETRIC_REPRESENTATION_CONTEXT(3)
GLOBAL_UNCERTAINTY_ASSIGNED_CONTEXT((#476))
GLOBAL_UNIT_ASSIGNED_CONTEXT((#480,#482,#483))
REPRESENTATION_CONTEXT('','3D')
);
#479=(
GEOMETRIC_REPRESENTATION_CONTEXT(3)
GLOBAL_UNCERTAINTY_ASSIGNED_CONTEXT((#477))
GLOBAL_UNIT_ASSIGNED_CONTEXT((#480,#482,#483))
REPRESENTATION_CONTEXT('','3D')
);
#480=(
LENGTH_UNIT()
NAMED_UNIT(*)
SI_UNIT(.MILLI.,.METRE.)
);
#481=(
LENGTH_UNIT()
NAMED_UNIT(*)
SI_UNIT($,.METRE.)
);
#482=(
NAMED_UNIT(*)
PLANE_ANGLE_UNIT()
SI_UNIT($,.RADIAN.)
);
#483=(
NAMED_UNIT(*)
SI_UNIT($,.STERADIAN.)
SOLID_ANGLE_UNIT()
);
#484=SHAPE_DEFINITION_REPRESENTATION(#485,#486);
#485=PRODUCT_DEFINITION_SHAPE('',$,#488);
#486=SHAPE_REPRESENTATION('',(#288),#478);
#487=PRODUCT_DEFINITION_CONTEXT('part definition',#492,'design');
#488=PRODUCT_DEFINITION('Z-Axis_Z-Axis_Riser_Block',
'Z-Axis_Z-Axis_Riser_Block v1',#489,#487);
#489=PRODUCT_DEFINITION_FORMATION('',$,#494);
#490=PRODUCT_RELATED_PRODUCT_CATEGORY('Z-Axis_Z-Axis_Riser_Block v1',
'Z-Axis_Z-Axis_Riser_Block v1',(#494));
#491=APPLICATION_PROTOCOL_DEFINITION('international standard',
'automotive_design',2009,#492);
#492=APPLICATION_CONTEXT(
'Core Data for Automotive Mechanical Design Process');
#493=PRODUCT_CONTEXT('part definition',#492,'mechanical');
#494=PRODUCT('Z-Axis_Z-Axis_Riser_Block','Z-Axis_Z-Axis_Riser_Block v1',
$,(#493));
#495=PRESENTATION_STYLE_ASSIGNMENT((#496));
#496=SURFACE_STYLE_USAGE(.BOTH.,#497);
#497=SURFACE_SIDE_STYLE('',(#498));
#498=SURFACE_STYLE_FILL_AREA(#499);
#499=FILL_AREA_STYLE('Stahl - satiniert',(#500));
#500=FILL_AREA_STYLE_COLOUR('Stahl - satiniert',#501);
#501=COLOUR_RGB('Stahl - satiniert',0.627450980392157,0.627450980392157,
0.627450980392157);
ENDSEC;
END-ISO-10303-21;
