ISO-10303-21;
HEADER;
/* Generated by software containing ST-Developer
 * from STEP Tools, Inc. (www.steptools.com) 
 */

FILE_DESCRIPTION(
/* description */ (''),
/* implementation_level */ '2;1');

FILE_NAME(
/* name */ 'plaque de raccord v1.0.step',
/* time_stamp */ '2024-06-06T11:53:00+02:00',
/* author */ (''),
/* organization */ (''),
/* preprocessor_version */ 'ST-DEVELOPER v20',
/* originating_system */ 'Autodesk Translation Framework v13.14.0.145',

/* authorisation */ '');

FILE_SCHEMA (('AUTOMOTIVE_DESIGN { 1 0 10303 214 3 1 1 }'));
ENDSEC;

DATA;
#10=MECHANICAL_DESIGN_GEOMETRIC_PRESENTATION_REPRESENTATION('',(#13),#401);
#11=SHAPE_REPRESENTATION_RELATIONSHIP('SRR','None',#408,#12);
#12=ADVANCED_BREP_SHAPE_REPRESENTATION('',(#14),#400);
#13=STYLED_ITEM('',(#417),#14);
#14=MANIFOLD_SOLID_BREP('Corps1',#229);
#15=FACE_BOUND('',#48,.T.);
#16=FACE_BOUND('',#49,.T.);
#17=FACE_BOUND('',#51,.T.);
#18=FACE_BOUND('',#52,.T.);
#19=PLANE('',#252);
#20=PLANE('',#256);
#21=PLANE('',#260);
#22=PLANE('',#264);
#23=PLANE('',#265);
#24=PLANE('',#266);
#25=FACE_OUTER_BOUND('',#37,.T.);
#26=FACE_OUTER_BOUND('',#38,.T.);
#27=FACE_OUTER_BOUND('',#39,.T.);
#28=FACE_OUTER_BOUND('',#40,.T.);
#29=FACE_OUTER_BOUND('',#41,.T.);
#30=FACE_OUTER_BOUND('',#42,.T.);
#31=FACE_OUTER_BOUND('',#43,.T.);
#32=FACE_OUTER_BOUND('',#44,.T.);
#33=FACE_OUTER_BOUND('',#45,.T.);
#34=FACE_OUTER_BOUND('',#46,.T.);
#35=FACE_OUTER_BOUND('',#47,.T.);
#36=FACE_OUTER_BOUND('',#50,.T.);
#37=EDGE_LOOP('',(#151,#152,#153,#154));
#38=EDGE_LOOP('',(#155,#156,#157,#158));
#39=EDGE_LOOP('',(#159,#160,#161,#162));
#40=EDGE_LOOP('',(#163,#164,#165,#166));
#41=EDGE_LOOP('',(#167,#168,#169,#170));
#42=EDGE_LOOP('',(#171,#172,#173,#174));
#43=EDGE_LOOP('',(#175,#176,#177,#178));
#44=EDGE_LOOP('',(#179,#180,#181,#182));
#45=EDGE_LOOP('',(#183,#184,#185,#186));
#46=EDGE_LOOP('',(#187,#188,#189,#190));
#47=EDGE_LOOP('',(#191,#192,#193,#194,#195,#196,#197,#198));
#48=EDGE_LOOP('',(#199));
#49=EDGE_LOOP('',(#200));
#50=EDGE_LOOP('',(#201,#202,#203,#204,#205,#206,#207,#208));
#51=EDGE_LOOP('',(#209));
#52=EDGE_LOOP('',(#210));
#53=LINE('',#340,#71);
#54=LINE('',#346,#72);
#55=LINE('',#353,#73);
#56=LINE('',#356,#74);
#57=LINE('',#359,#75);
#58=LINE('',#361,#76);
#59=LINE('',#362,#77);
#60=LINE('',#368,#78);
#61=LINE('',#371,#79);
#62=LINE('',#373,#80);
#63=LINE('',#374,#81);
#64=LINE('',#380,#82);
#65=LINE('',#383,#83);
#66=LINE('',#385,#84);
#67=LINE('',#386,#85);
#68=LINE('',#392,#86);
#69=LINE('',#394,#87);
#70=LINE('',#395,#88);
#71=VECTOR('',#273,5.);
#72=VECTOR('',#280,5.);
#73=VECTOR('',#287,10.);
#74=VECTOR('',#290,10.);
#75=VECTOR('',#293,10.);
#76=VECTOR('',#294,10.);
#77=VECTOR('',#295,10.);
#78=VECTOR('',#302,10.);
#79=VECTOR('',#305,10.);
#80=VECTOR('',#306,10.);
#81=VECTOR('',#307,10.);
#82=VECTOR('',#314,10.);
#83=VECTOR('',#317,10.);
#84=VECTOR('',#318,10.);
#85=VECTOR('',#319,10.);
#86=VECTOR('',#326,10.);
#87=VECTOR('',#329,10.);
#88=VECTOR('',#330,10.);
#89=CIRCLE('',#244,5.);
#90=CIRCLE('',#245,5.);
#91=CIRCLE('',#247,5.);
#92=CIRCLE('',#248,5.);
#93=CIRCLE('',#250,35.);
#94=CIRCLE('',#251,35.);
#95=CIRCLE('',#254,35.);
#96=CIRCLE('',#255,35.);
#97=CIRCLE('',#258,30.);
#98=CIRCLE('',#259,30.);
#99=CIRCLE('',#262,30.);
#100=CIRCLE('',#263,30.);
#101=VERTEX_POINT('',#337);
#102=VERTEX_POINT('',#339);
#103=VERTEX_POINT('',#343);
#104=VERTEX_POINT('',#345);
#105=VERTEX_POINT('',#349);
#106=VERTEX_POINT('',#350);
#107=VERTEX_POINT('',#352);
#108=VERTEX_POINT('',#354);
#109=VERTEX_POINT('',#358);
#110=VERTEX_POINT('',#360);
#111=VERTEX_POINT('',#364);
#112=VERTEX_POINT('',#366);
#113=VERTEX_POINT('',#370);
#114=VERTEX_POINT('',#372);
#115=VERTEX_POINT('',#376);
#116=VERTEX_POINT('',#378);
#117=VERTEX_POINT('',#382);
#118=VERTEX_POINT('',#384);
#119=VERTEX_POINT('',#388);
#120=VERTEX_POINT('',#390);
#121=EDGE_CURVE('',#101,#101,#89,.T.);
#122=EDGE_CURVE('',#101,#102,#53,.T.);
#123=EDGE_CURVE('',#102,#102,#90,.T.);
#124=EDGE_CURVE('',#103,#103,#91,.T.);
#125=EDGE_CURVE('',#103,#104,#54,.T.);
#126=EDGE_CURVE('',#104,#104,#92,.T.);
#127=EDGE_CURVE('',#105,#106,#93,.T.);
#128=EDGE_CURVE('',#105,#107,#55,.T.);
#129=EDGE_CURVE('',#108,#107,#94,.T.);
#130=EDGE_CURVE('',#106,#108,#56,.T.);
#131=EDGE_CURVE('',#109,#106,#57,.T.);
#132=EDGE_CURVE('',#110,#108,#58,.T.);
#133=EDGE_CURVE('',#109,#110,#59,.T.);
#134=EDGE_CURVE('',#109,#111,#95,.T.);
#135=EDGE_CURVE('',#112,#110,#96,.T.);
#136=EDGE_CURVE('',#111,#112,#60,.T.);
#137=EDGE_CURVE('',#113,#111,#61,.T.);
#138=EDGE_CURVE('',#114,#112,#62,.T.);
#139=EDGE_CURVE('',#113,#114,#63,.T.);
#140=EDGE_CURVE('',#115,#113,#97,.T.);
#141=EDGE_CURVE('',#116,#114,#98,.T.);
#142=EDGE_CURVE('',#115,#116,#64,.T.);
#143=EDGE_CURVE('',#117,#115,#65,.T.);
#144=EDGE_CURVE('',#118,#116,#66,.T.);
#145=EDGE_CURVE('',#117,#118,#67,.T.);
#146=EDGE_CURVE('',#119,#117,#99,.T.);
#147=EDGE_CURVE('',#120,#118,#100,.T.);
#148=EDGE_CURVE('',#119,#120,#68,.T.);
#149=EDGE_CURVE('',#105,#119,#69,.T.);
#150=EDGE_CURVE('',#107,#120,#70,.T.);
#151=ORIENTED_EDGE('',*,*,#121,.F.);
#152=ORIENTED_EDGE('',*,*,#122,.T.);
#153=ORIENTED_EDGE('',*,*,#123,.T.);
#154=ORIENTED_EDGE('',*,*,#122,.F.);
#155=ORIENTED_EDGE('',*,*,#124,.F.);
#156=ORIENTED_EDGE('',*,*,#125,.T.);
#157=ORIENTED_EDGE('',*,*,#126,.T.);
#158=ORIENTED_EDGE('',*,*,#125,.F.);
#159=ORIENTED_EDGE('',*,*,#127,.F.);
#160=ORIENTED_EDGE('',*,*,#128,.T.);
#161=ORIENTED_EDGE('',*,*,#129,.F.);
#162=ORIENTED_EDGE('',*,*,#130,.F.);
#163=ORIENTED_EDGE('',*,*,#131,.T.);
#164=ORIENTED_EDGE('',*,*,#130,.T.);
#165=ORIENTED_EDGE('',*,*,#132,.F.);
#166=ORIENTED_EDGE('',*,*,#133,.F.);
#167=ORIENTED_EDGE('',*,*,#134,.F.);
#168=ORIENTED_EDGE('',*,*,#133,.T.);
#169=ORIENTED_EDGE('',*,*,#135,.F.);
#170=ORIENTED_EDGE('',*,*,#136,.F.);
#171=ORIENTED_EDGE('',*,*,#137,.T.);
#172=ORIENTED_EDGE('',*,*,#136,.T.);
#173=ORIENTED_EDGE('',*,*,#138,.F.);
#174=ORIENTED_EDGE('',*,*,#139,.F.);
#175=ORIENTED_EDGE('',*,*,#140,.T.);
#176=ORIENTED_EDGE('',*,*,#139,.T.);
#177=ORIENTED_EDGE('',*,*,#141,.F.);
#178=ORIENTED_EDGE('',*,*,#142,.F.);
#179=ORIENTED_EDGE('',*,*,#143,.T.);
#180=ORIENTED_EDGE('',*,*,#142,.T.);
#181=ORIENTED_EDGE('',*,*,#144,.F.);
#182=ORIENTED_EDGE('',*,*,#145,.F.);
#183=ORIENTED_EDGE('',*,*,#146,.T.);
#184=ORIENTED_EDGE('',*,*,#145,.T.);
#185=ORIENTED_EDGE('',*,*,#147,.F.);
#186=ORIENTED_EDGE('',*,*,#148,.F.);
#187=ORIENTED_EDGE('',*,*,#149,.T.);
#188=ORIENTED_EDGE('',*,*,#148,.T.);
#189=ORIENTED_EDGE('',*,*,#150,.F.);
#190=ORIENTED_EDGE('',*,*,#128,.F.);
#191=ORIENTED_EDGE('',*,*,#150,.T.);
#192=ORIENTED_EDGE('',*,*,#147,.T.);
#193=ORIENTED_EDGE('',*,*,#144,.T.);
#194=ORIENTED_EDGE('',*,*,#141,.T.);
#195=ORIENTED_EDGE('',*,*,#138,.T.);
#196=ORIENTED_EDGE('',*,*,#135,.T.);
#197=ORIENTED_EDGE('',*,*,#132,.T.);
#198=ORIENTED_EDGE('',*,*,#129,.T.);
#199=ORIENTED_EDGE('',*,*,#124,.T.);
#200=ORIENTED_EDGE('',*,*,#121,.T.);
#201=ORIENTED_EDGE('',*,*,#149,.F.);
#202=ORIENTED_EDGE('',*,*,#127,.T.);
#203=ORIENTED_EDGE('',*,*,#131,.F.);
#204=ORIENTED_EDGE('',*,*,#134,.T.);
#205=ORIENTED_EDGE('',*,*,#137,.F.);
#206=ORIENTED_EDGE('',*,*,#140,.F.);
#207=ORIENTED_EDGE('',*,*,#143,.F.);
#208=ORIENTED_EDGE('',*,*,#146,.F.);
#209=ORIENTED_EDGE('',*,*,#126,.F.);
#210=ORIENTED_EDGE('',*,*,#123,.F.);
#211=CYLINDRICAL_SURFACE('',#243,5.);
#212=CYLINDRICAL_SURFACE('',#246,5.);
#213=CYLINDRICAL_SURFACE('',#249,35.);
#214=CYLINDRICAL_SURFACE('',#253,35.);
#215=CYLINDRICAL_SURFACE('',#257,30.);
#216=CYLINDRICAL_SURFACE('',#261,30.);
#217=ADVANCED_FACE('',(#25),#211,.F.);
#218=ADVANCED_FACE('',(#26),#212,.F.);
#219=ADVANCED_FACE('',(#27),#213,.F.);
#220=ADVANCED_FACE('',(#28),#19,.T.);
#221=ADVANCED_FACE('',(#29),#214,.F.);
#222=ADVANCED_FACE('',(#30),#20,.T.);
#223=ADVANCED_FACE('',(#31),#215,.T.);
#224=ADVANCED_FACE('',(#32),#21,.T.);
#225=ADVANCED_FACE('',(#33),#216,.T.);
#226=ADVANCED_FACE('',(#34),#22,.T.);
#227=ADVANCED_FACE('',(#35,#15,#16),#23,.T.);
#228=ADVANCED_FACE('',(#36,#17,#18),#24,.F.);
#229=CLOSED_SHELL('',(#217,#218,#219,#220,#221,#222,#223,#224,#225,#226,
#227,#228));
#230=DERIVED_UNIT_ELEMENT(#232,1.);
#231=DERIVED_UNIT_ELEMENT(#403,-3.);
#232=(
MASS_UNIT()
NAMED_UNIT(*)
SI_UNIT(.KILO.,.GRAM.)
);
#233=DERIVED_UNIT((#230,#231));
#234=MEASURE_REPRESENTATION_ITEM('density measure',
POSITIVE_RATIO_MEASURE(1188.),#233);
#235=PROPERTY_DEFINITION_REPRESENTATION(#240,#237);
#236=PROPERTY_DEFINITION_REPRESENTATION(#241,#238);
#237=REPRESENTATION('material name',(#239),#400);
#238=REPRESENTATION('density',(#234),#400);
#239=DESCRIPTIVE_REPRESENTATION_ITEM('Acrylique','Acrylique');
#240=PROPERTY_DEFINITION('material property','material name',#410);
#241=PROPERTY_DEFINITION('material property','density of part',#410);
#242=AXIS2_PLACEMENT_3D('',#335,#267,#268);
#243=AXIS2_PLACEMENT_3D('',#336,#269,#270);
#244=AXIS2_PLACEMENT_3D('',#338,#271,#272);
#245=AXIS2_PLACEMENT_3D('',#341,#274,#275);
#246=AXIS2_PLACEMENT_3D('',#342,#276,#277);
#247=AXIS2_PLACEMENT_3D('',#344,#278,#279);
#248=AXIS2_PLACEMENT_3D('',#347,#281,#282);
#249=AXIS2_PLACEMENT_3D('',#348,#283,#284);
#250=AXIS2_PLACEMENT_3D('',#351,#285,#286);
#251=AXIS2_PLACEMENT_3D('',#355,#288,#289);
#252=AXIS2_PLACEMENT_3D('',#357,#291,#292);
#253=AXIS2_PLACEMENT_3D('',#363,#296,#297);
#254=AXIS2_PLACEMENT_3D('',#365,#298,#299);
#255=AXIS2_PLACEMENT_3D('',#367,#300,#301);
#256=AXIS2_PLACEMENT_3D('',#369,#303,#304);
#257=AXIS2_PLACEMENT_3D('',#375,#308,#309);
#258=AXIS2_PLACEMENT_3D('',#377,#310,#311);
#259=AXIS2_PLACEMENT_3D('',#379,#312,#313);
#260=AXIS2_PLACEMENT_3D('',#381,#315,#316);
#261=AXIS2_PLACEMENT_3D('',#387,#320,#321);
#262=AXIS2_PLACEMENT_3D('',#389,#322,#323);
#263=AXIS2_PLACEMENT_3D('',#391,#324,#325);
#264=AXIS2_PLACEMENT_3D('',#393,#327,#328);
#265=AXIS2_PLACEMENT_3D('',#396,#331,#332);
#266=AXIS2_PLACEMENT_3D('',#397,#333,#334);
#267=DIRECTION('axis',(0.,0.,1.));
#268=DIRECTION('refdir',(1.,0.,0.));
#269=DIRECTION('center_axis',(0.,0.,1.));
#270=DIRECTION('ref_axis',(1.,0.,0.));
#271=DIRECTION('center_axis',(0.,0.,-1.));
#272=DIRECTION('ref_axis',(1.,0.,0.));
#273=DIRECTION('',(0.,0.,-1.));
#274=DIRECTION('center_axis',(0.,0.,-1.));
#275=DIRECTION('ref_axis',(1.,0.,0.));
#276=DIRECTION('center_axis',(0.,0.,1.));
#277=DIRECTION('ref_axis',(1.,0.,0.));
#278=DIRECTION('center_axis',(0.,0.,-1.));
#279=DIRECTION('ref_axis',(1.,0.,0.));
#280=DIRECTION('',(0.,0.,-1.));
#281=DIRECTION('center_axis',(0.,0.,-1.));
#282=DIRECTION('ref_axis',(1.,0.,0.));
#283=DIRECTION('center_axis',(0.,0.,1.));
#284=DIRECTION('ref_axis',(1.,0.,0.));
#285=DIRECTION('center_axis',(0.,0.,1.));
#286=DIRECTION('ref_axis',(1.,0.,0.));
#287=DIRECTION('',(0.,0.,1.));
#288=DIRECTION('center_axis',(0.,0.,-1.));
#289=DIRECTION('ref_axis',(1.,0.,0.));
#290=DIRECTION('',(0.,0.,1.));
#291=DIRECTION('center_axis',(-1.,2.05432527401305E-33,0.));
#292=DIRECTION('ref_axis',(-2.05432527401305E-33,-1.,0.));
#293=DIRECTION('',(-2.05432527401305E-33,-1.,0.));
#294=DIRECTION('',(-2.05432527401305E-33,-1.,0.));
#295=DIRECTION('',(0.,0.,1.));
#296=DIRECTION('center_axis',(0.,0.,1.));
#297=DIRECTION('ref_axis',(1.,0.,0.));
#298=DIRECTION('center_axis',(0.,0.,1.));
#299=DIRECTION('ref_axis',(1.,0.,0.));
#300=DIRECTION('center_axis',(0.,0.,-1.));
#301=DIRECTION('ref_axis',(1.,0.,0.));
#302=DIRECTION('',(0.,0.,1.));
#303=DIRECTION('center_axis',(0.,1.,0.));
#304=DIRECTION('ref_axis',(-1.,0.,0.));
#305=DIRECTION('',(-1.,0.,0.));
#306=DIRECTION('',(-1.,0.,0.));
#307=DIRECTION('',(0.,0.,1.));
#308=DIRECTION('center_axis',(0.,0.,1.));
#309=DIRECTION('ref_axis',(1.,5.9211894646675E-16,0.));
#310=DIRECTION('center_axis',(0.,0.,1.));
#311=DIRECTION('ref_axis',(1.,5.9211894646675E-16,0.));
#312=DIRECTION('center_axis',(0.,0.,1.));
#313=DIRECTION('ref_axis',(1.,5.9211894646675E-16,0.));
#314=DIRECTION('',(0.,0.,1.));
#315=DIRECTION('center_axis',(1.,0.,0.));
#316=DIRECTION('ref_axis',(0.,1.,0.));
#317=DIRECTION('',(0.,1.,0.));
#318=DIRECTION('',(0.,1.,0.));
#319=DIRECTION('',(0.,0.,1.));
#320=DIRECTION('center_axis',(0.,0.,1.));
#321=DIRECTION('ref_axis',(0.,-1.,0.));
#322=DIRECTION('center_axis',(0.,0.,1.));
#323=DIRECTION('ref_axis',(0.,-1.,0.));
#324=DIRECTION('center_axis',(0.,0.,1.));
#325=DIRECTION('ref_axis',(0.,-1.,0.));
#326=DIRECTION('',(0.,0.,1.));
#327=DIRECTION('center_axis',(0.,-1.,0.));
#328=DIRECTION('ref_axis',(1.,0.,0.));
#329=DIRECTION('',(1.,0.,0.));
#330=DIRECTION('',(1.,0.,0.));
#331=DIRECTION('center_axis',(0.,0.,1.));
#332=DIRECTION('ref_axis',(1.,0.,0.));
#333=DIRECTION('center_axis',(0.,0.,1.));
#334=DIRECTION('ref_axis',(1.,0.,0.));
#335=CARTESIAN_POINT('',(0.,0.,0.));
#336=CARTESIAN_POINT('Origin',(110.,80.,0.));
#337=CARTESIAN_POINT('',(105.,80.,4.));
#338=CARTESIAN_POINT('Origin',(110.,80.,4.));
#339=CARTESIAN_POINT('',(105.,80.,0.));
#340=CARTESIAN_POINT('',(105.,80.,0.));
#341=CARTESIAN_POINT('Origin',(110.,80.,0.));
#342=CARTESIAN_POINT('Origin',(110.,40.,0.));
#343=CARTESIAN_POINT('',(105.,40.,4.));
#344=CARTESIAN_POINT('Origin',(110.,40.,4.));
#345=CARTESIAN_POINT('',(105.,40.,0.));
#346=CARTESIAN_POINT('',(105.,40.,0.));
#347=CARTESIAN_POINT('Origin',(110.,40.,0.));
#348=CARTESIAN_POINT('Origin',(0.,0.,0.));
#349=CARTESIAN_POINT('',(35.,0.,0.));
#350=CARTESIAN_POINT('',(2.14313189850787E-15,35.,0.));
#351=CARTESIAN_POINT('Origin',(0.,0.,0.));
#352=CARTESIAN_POINT('',(35.,0.,4.));
#353=CARTESIAN_POINT('',(35.,0.,0.));
#354=CARTESIAN_POINT('',(0.,35.,4.));
#355=CARTESIAN_POINT('Origin',(0.,0.,4.));
#356=CARTESIAN_POINT('',(2.14313189850787E-15,35.,0.));
#357=CARTESIAN_POINT('Origin',(1.74617648291109E-31,85.,0.));
#358=CARTESIAN_POINT('',(-6.4293956955236E-15,85.,0.));
#359=CARTESIAN_POINT('',(2.46519032881566E-31,120.,0.));
#360=CARTESIAN_POINT('',(0.,85.,4.));
#361=CARTESIAN_POINT('',(2.46519032881566E-31,120.,4.));
#362=CARTESIAN_POINT('',(-6.4293956955236E-15,85.,0.));
#363=CARTESIAN_POINT('Origin',(2.46519032881566E-31,120.,0.));
#364=CARTESIAN_POINT('',(35.,120.,0.));
#365=CARTESIAN_POINT('Origin',(2.46519032881566E-31,120.,0.));
#366=CARTESIAN_POINT('',(35.,120.,4.));
#367=CARTESIAN_POINT('Origin',(2.46519032881566E-31,120.,4.));
#368=CARTESIAN_POINT('',(35.,120.,0.));
#369=CARTESIAN_POINT('Origin',(120.,120.,0.));
#370=CARTESIAN_POINT('',(120.,120.,0.));
#371=CARTESIAN_POINT('',(120.,120.,0.));
#372=CARTESIAN_POINT('',(120.,120.,4.));
#373=CARTESIAN_POINT('',(120.,120.,4.));
#374=CARTESIAN_POINT('',(120.,120.,0.));
#375=CARTESIAN_POINT('Origin',(120.,90.,0.));
#376=CARTESIAN_POINT('',(150.,90.,0.));
#377=CARTESIAN_POINT('Origin',(120.,90.,0.));
#378=CARTESIAN_POINT('',(150.,90.,4.));
#379=CARTESIAN_POINT('Origin',(120.,90.,4.));
#380=CARTESIAN_POINT('',(150.,90.,0.));
#381=CARTESIAN_POINT('Origin',(150.,30.,0.));
#382=CARTESIAN_POINT('',(150.,30.,0.));
#383=CARTESIAN_POINT('',(150.,30.,0.));
#384=CARTESIAN_POINT('',(150.,30.,4.));
#385=CARTESIAN_POINT('',(150.,30.,4.));
#386=CARTESIAN_POINT('',(150.,30.,0.));
#387=CARTESIAN_POINT('Origin',(120.,30.,0.));
#388=CARTESIAN_POINT('',(120.,0.,0.));
#389=CARTESIAN_POINT('Origin',(120.,30.,0.));
#390=CARTESIAN_POINT('',(120.,0.,4.));
#391=CARTESIAN_POINT('Origin',(120.,30.,4.));
#392=CARTESIAN_POINT('',(120.,0.,0.));
#393=CARTESIAN_POINT('Origin',(35.,0.,0.));
#394=CARTESIAN_POINT('',(0.,0.,0.));
#395=CARTESIAN_POINT('',(0.,0.,4.));
#396=CARTESIAN_POINT('Origin',(75.,60.,4.));
#397=CARTESIAN_POINT('Origin',(75.,60.,0.));
#398=UNCERTAINTY_MEASURE_WITH_UNIT(LENGTH_MEASURE(0.01),#402,
'DISTANCE_ACCURACY_VALUE',
'Maximum model space distance between geometric entities at asserted c
onnectivities');
#399=UNCERTAINTY_MEASURE_WITH_UNIT(LENGTH_MEASURE(0.01),#402,
'DISTANCE_ACCURACY_VALUE',
'Maximum model space distance between geometric entities at asserted c
onnectivities');
#400=(
GEOMETRIC_REPRESENTATION_CONTEXT(3)
GLOBAL_UNCERTAINTY_ASSIGNED_CONTEXT((#398))
GLOBAL_UNIT_ASSIGNED_CONTEXT((#402,#404,#405))
REPRESENTATION_CONTEXT('','3D')
);
#401=(
GEOMETRIC_REPRESENTATION_CONTEXT(3)
GLOBAL_UNCERTAINTY_ASSIGNED_CONTEXT((#399))
GLOBAL_UNIT_ASSIGNED_CONTEXT((#402,#404,#405))
REPRESENTATION_CONTEXT('','3D')
);
#402=(
LENGTH_UNIT()
NAMED_UNIT(*)
SI_UNIT(.MILLI.,.METRE.)
);
#403=(
LENGTH_UNIT()
NAMED_UNIT(*)
SI_UNIT($,.METRE.)
);
#404=(
NAMED_UNIT(*)
PLANE_ANGLE_UNIT()
SI_UNIT($,.RADIAN.)
);
#405=(
NAMED_UNIT(*)
SI_UNIT($,.STERADIAN.)
SOLID_ANGLE_UNIT()
);
#406=SHAPE_DEFINITION_REPRESENTATION(#407,#408);
#407=PRODUCT_DEFINITION_SHAPE('',$,#410);
#408=SHAPE_REPRESENTATION('',(#242),#400);
#409=PRODUCT_DEFINITION_CONTEXT('part definition',#414,'design');
#410=PRODUCT_DEFINITION('plaque metal','plaque metal v2',#411,#409);
#411=PRODUCT_DEFINITION_FORMATION('',$,#416);
#412=PRODUCT_RELATED_PRODUCT_CATEGORY('plaque metal v2',
'plaque metal v2',(#416));
#413=APPLICATION_PROTOCOL_DEFINITION('international standard',
'automotive_design',2009,#414);
#414=APPLICATION_CONTEXT(
'Core Data for Automotive Mechanical Design Process');
#415=PRODUCT_CONTEXT('part definition',#414,'mechanical');
#416=PRODUCT('plaque metal','plaque metal v2',$,(#415));
#417=PRESENTATION_STYLE_ASSIGNMENT((#418));
#418=SURFACE_STYLE_USAGE(.BOTH.,#419);
#419=SURFACE_SIDE_STYLE('',(#420));
#420=SURFACE_STYLE_FILL_AREA(#421);
#421=FILL_AREA_STYLE('Plastique - Brillant (gris)',(#422));
#422=FILL_AREA_STYLE_COLOUR('Plastique - Brillant (gris)',#423);
#423=COLOUR_RGB('Plastique - Brillant (gris)',0.701960784313725,0.701960784313725,
0.701960784313725);
ENDSEC;
END-ISO-10303-21;
