ISO-10303-21;
HEADER;
FILE_DESCRIPTION(('CATIA V5 STEP Exchange','CAx-IF Rec.Pracs.--- Model Styling and Organization---1.4--- 2014-01-23'),'2;1');

FILE_NAME('P:\\CATIA_TMP/ATGM_OUT/atdmdir/interfaces/gedtbe\\F1556062_P01_00.stp','2024-06-05T10:28:21+00:00',('THALES'),('THALES'),'CATIA Version 5-6 Release 2019 SP5 HF41','CATIA V5 STEP AP214 v1','none');

FILE_SCHEMA(('AUTOMOTIVE_DESIGN { 1 0 10303 214 1 1 1 1 }'));

ENDSEC;
DATA;
#5=PRODUCT('F1556062_P01','F1556062_P01','',(#2)) ;
#2=PRODUCT_CONTEXT(' ',#1,'mechanical') ;
#1=APPLICATION_CONTEXT('automotive design') ;
#10=PRODUCT_DEFINITION('PLAQUETTE',' ',#6,#3) ;
#3=PRODUCT_DEFINITION_CONTEXT('part definition',#1,' ') ;
#11=PRODUCT_DEFINITION_SHAPE(' ',' ',#10) ;
#169=MECHANICAL_DESIGN_GEOMETRIC_PRESENTATION_REPRESENTATION(' ',(#29),#16) ;
#170=MECHANICAL_DESIGN_GEOMETRIC_PRESENTATION_REPRESENTATION(' ',(#166),#16) ;
#19=SHAPE_REPRESENTATION(' ',(#18),#16) ;
#18=AXIS2_PLACEMENT_3D(' ',#17,$,$) ;
#34=AXIS2_PLACEMENT_3D('Plane Axis2P3D',#31,#32,#33) ;
#38=AXIS2_PLACEMENT_3D('Circle Axis2P3D',#36,#37,$) ;
#47=AXIS2_PLACEMENT_3D('Circle Axis2P3D',#45,#46,$) ;
#58=AXIS2_PLACEMENT_3D('Cylinder Axis2P3D',#55,#56,#57) ;
#76=AXIS2_PLACEMENT_3D('Circle Axis2P3D',#74,#75,$) ;
#88=AXIS2_PLACEMENT_3D('Circle Axis2P3D',#86,#87,$) ;
#101=AXIS2_PLACEMENT_3D('Plane Axis2P3D',#98,#99,#100) ;
#105=AXIS2_PLACEMENT_3D('Circle Axis2P3D',#103,#104,$) ;
#114=AXIS2_PLACEMENT_3D('Circle Axis2P3D',#112,#113,$) ;
#125=AXIS2_PLACEMENT_3D('Cone Axis2P3D',#122,#123,#124) ;
#147=AXIS2_PLACEMENT_3D('Cone Axis2P3D',#144,#145,#146) ;
#161=AXIS2_PLACEMENT_3D('Rep\X2\00E8\X0\re.1',#158,#159,#160) ;
#17=CARTESIAN_POINT(' ',(0.,0.,0.)) ;
#31=CARTESIAN_POINT('Axis2P3D Location',(0.,0.,0.)) ;
#36=CARTESIAN_POINT('Axis2P3D Location',(0.,0.,0.)) ;
#40=CARTESIAN_POINT('Vertex',(4.5,0.,0.)) ;
#42=CARTESIAN_POINT('Vertex',(-4.5,5.51091059616E-16,0.)) ;
#45=CARTESIAN_POINT('Axis2P3D Location',(0.,0.,0.)) ;
#55=CARTESIAN_POINT('Axis2P3D Location',(0.,0.,-2.2)) ;
#60=CARTESIAN_POINT('Line Origine',(-4.5,5.51091059616E-16,-2.2)) ;
#64=CARTESIAN_POINT('Vertex',(-4.5,5.51091059616E-16,-3.9)) ;
#67=CARTESIAN_POINT('Line Origine',(4.5,0.,-2.2)) ;
#71=CARTESIAN_POINT('Vertex',(4.5,-5.09898500788E-15,-3.9)) ;
#74=CARTESIAN_POINT('Axis2P3D Location',(0.,0.,-3.9)) ;
#86=CARTESIAN_POINT('Axis2P3D Location',(0.,0.,-3.9)) ;
#98=CARTESIAN_POINT('Axis2P3D Location',(0.,0.,-4.4)) ;
#103=CARTESIAN_POINT('Axis2P3D Location',(0.,-4.7005754556E-16,-4.4)) ;
#107=CARTESIAN_POINT('Vertex',(4.,-1.44977498488E-15,-4.4)) ;
#109=CARTESIAN_POINT('Vertex',(-4.,-3.5329125047E-15,-4.4)) ;
#112=CARTESIAN_POINT('Axis2P3D Location',(0.,-4.7005754556E-16,-4.4)) ;
#122=CARTESIAN_POINT('Axis2P3D Location',(3.10862446895E-15,1.14457344455E-15,-8.4)) ;
#127=CARTESIAN_POINT('Line Origine',(-4.25,-2.75501339256E-15,-4.15)) ;
#132=CARTESIAN_POINT('Line Origine',(4.25,2.42588773933E-16,-4.15)) ;
#144=CARTESIAN_POINT('Axis2P3D Location',(-7.77156117238E-15,2.19824158876E-14,-8.4)) ;
#158=CARTESIAN_POINT('Axis2P3D Location',(0.,0.,0.)) ;
#32=DIRECTION('Axis2P3D Direction',(0.,0.,1.)) ;
#33=DIRECTION('Axis2P3D XDirection',(1.,0.,0.)) ;
#37=DIRECTION('Axis2P3D Direction',(0.,0.,1.)) ;
#46=DIRECTION('Axis2P3D Direction',(0.,0.,1.)) ;
#56=DIRECTION('Axis2P3D Direction',(0.,0.,1.)) ;
#57=DIRECTION('Axis2P3D XDirection',(1.,0.,0.)) ;
#61=DIRECTION('Vector Direction',(0.,0.,1.)) ;
#68=DIRECTION('Vector Direction',(0.,0.,1.)) ;
#75=DIRECTION('Axis2P3D Direction',(0.,0.,1.)) ;
#87=DIRECTION('Axis2P3D Direction',(0.,0.,1.)) ;
#99=DIRECTION('Axis2P3D Direction',(0.,0.,1.)) ;
#100=DIRECTION('Axis2P3D XDirection',(1.,0.,0.)) ;
#104=DIRECTION('Axis2P3D Direction',(0.,0.,1.)) ;
#113=DIRECTION('Axis2P3D Direction',(0.,0.,1.)) ;
#123=DIRECTION('Axis2P3D Direction',(-8.881784197E-16,-2.56395024851E-16,1.)) ;
#124=DIRECTION('Axis2P3D XDirection',(-0.5,0.866025403784,-1.64636126996E-16)) ;
#128=DIRECTION('Vector Direction',(-0.707106781187,-4.95317152471E-16,0.707106781187)) ;
#133=DIRECTION('Vector Direction',(0.707106781187,-1.81298660735E-16,0.707106781187)) ;
#145=DIRECTION('Axis2P3D Direction',(1.7763568394E-15,-5.3290705182E-15,1.)) ;
#146=DIRECTION('Axis2P3D XDirection',(1.,4.4408920985E-16,-1.81099739695E-15)) ;
#159=DIRECTION('Axis2P3D Direction',(0.,0.,1.)) ;
#160=DIRECTION('Axis2P3D XDirection',(1.,0.,0.)) ;
#8=PRODUCT_RELATED_PRODUCT_CATEGORY('part',$,(#5)) ;
#7=PRODUCT_CATEGORY('part','specification') ;
#29=STYLED_ITEM(' ',(#28),#21) ;
#166=STYLED_ITEM(' ',(#165),#161) ;
#28=PRESENTATION_STYLE_ASSIGNMENT((#27)) ;
#165=PRESENTATION_STYLE_ASSIGNMENT((#164)) ;
#164=CURVE_STYLE(' ',#162,POSITIVE_LENGTH_MEASURE(0.20000000298),#163) ;
#27=SURFACE_STYLE_USAGE(.BOTH.,#26) ;
#26=SURFACE_SIDE_STYLE(' ',(#25)) ;
#25=SURFACE_STYLE_FILL_AREA(#24) ;
#24=FILL_AREA_STYLE(' ',(#23)) ;
#23=FILL_AREA_STYLE_COLOUR(' ',#22) ;
#62=VECTOR('Line Direction',#61,1.) ;
#69=VECTOR('Line Direction',#68,1.) ;
#129=VECTOR('Line Direction',#128,1.) ;
#134=VECTOR('Line Direction',#133,1.) ;
#15=UNCERTAINTY_MEASURE_WITH_UNIT(LENGTH_MEASURE(0.005),#12,'distance_accuracy_value','CONFUSED CURVE UNCERTAINTY') ;
#157=SHAPE_REPRESENTATION_RELATIONSHIP(' ',' ',#19,#156) ;
#51=ORIENTED_EDGE('',*,*,#44,.T.) ;
#52=ORIENTED_EDGE('',*,*,#49,.T.) ;
#80=ORIENTED_EDGE('',*,*,#66,.F.) ;
#81=ORIENTED_EDGE('',*,*,#44,.F.) ;
#82=ORIENTED_EDGE('',*,*,#73,.T.) ;
#83=ORIENTED_EDGE('',*,*,#78,.T.) ;
#92=ORIENTED_EDGE('',*,*,#73,.F.) ;
#93=ORIENTED_EDGE('',*,*,#49,.F.) ;
#94=ORIENTED_EDGE('',*,*,#66,.T.) ;
#95=ORIENTED_EDGE('',*,*,#90,.T.) ;
#118=ORIENTED_EDGE('',*,*,#111,.F.) ;
#119=ORIENTED_EDGE('',*,*,#116,.F.) ;
#138=ORIENTED_EDGE('',*,*,#131,.T.) ;
#139=ORIENTED_EDGE('',*,*,#116,.T.) ;
#140=ORIENTED_EDGE('',*,*,#136,.F.) ;
#141=ORIENTED_EDGE('',*,*,#90,.F.) ;
#150=ORIENTED_EDGE('',*,*,#136,.T.) ;
#151=ORIENTED_EDGE('',*,*,#111,.T.) ;
#152=ORIENTED_EDGE('',*,*,#131,.F.) ;
#153=ORIENTED_EDGE('',*,*,#78,.F.) ;
#30=CLOSED_SHELL('Closed Shell',(#54,#85,#97,#121,#143,#155)) ;
#156=ADVANCED_BREP_SHAPE_REPRESENTATION('NONE',(#21),#16) ;
#54=ADVANCED_FACE('Corps principal',(#53),#35,.T.) ;
#85=ADVANCED_FACE('Corps principal',(#84),#59,.T.) ;
#97=ADVANCED_FACE('Corps principal',(#96),#59,.T.) ;
#121=ADVANCED_FACE('Corps principal',(#120),#102,.F.) ;
#143=ADVANCED_FACE('Corps principal',(#142),#126,.T.) ;
#155=ADVANCED_FACE('Corps principal',(#154),#148,.T.) ;
#4=APPLICATION_PROTOCOL_DEFINITION('international standard','automotive_design',2001,#1) ;
#21=MANIFOLD_SOLID_BREP('Corps principal',#30) ;
#39=CIRCLE('generated circle',#38,4.5) ;
#48=CIRCLE('generated circle',#47,4.5) ;
#77=CIRCLE('generated circle',#76,4.5) ;
#89=CIRCLE('generated circle',#88,4.5) ;
#106=CIRCLE('generated circle',#105,4.) ;
#115=CIRCLE('generated circle',#114,4.) ;
#22=COLOUR_RGB('Colour',0.823529411765,0.823529411765,1.) ;
#126=CONICAL_SURFACE('Cone',#125,0.,0.785398163397) ;
#148=CONICAL_SURFACE('Cone',#147,0.,0.785398163397) ;
#167=CONSTRUCTIVE_GEOMETRY_REPRESENTATION('supplemental geometry',(#161),#16) ;
#168=CONSTRUCTIVE_GEOMETRY_REPRESENTATION_RELATIONSHIP('supplemental geometry','',#19,#167) ;
#59=CYLINDRICAL_SURFACE('generated cylinder',#58,4.5) ;
#163=DRAUGHTING_PRE_DEFINED_COLOUR('white') ;
#162=DRAUGHTING_PRE_DEFINED_CURVE_FONT('continuous') ;
#44=EDGE_CURVE('',#41,#43,#39,.T.) ;
#49=EDGE_CURVE('',#43,#41,#48,.T.) ;
#66=EDGE_CURVE('',#43,#65,#63,.F.) ;
#73=EDGE_CURVE('',#41,#72,#70,.F.) ;
#78=EDGE_CURVE('',#72,#65,#77,.T.) ;
#90=EDGE_CURVE('',#65,#72,#89,.T.) ;
#111=EDGE_CURVE('',#108,#110,#106,.T.) ;
#116=EDGE_CURVE('',#110,#108,#115,.T.) ;
#131=EDGE_CURVE('',#65,#110,#130,.F.) ;
#136=EDGE_CURVE('',#72,#108,#135,.F.) ;
#50=EDGE_LOOP('',(#51,#52)) ;
#79=EDGE_LOOP('',(#80,#81,#82,#83)) ;
#91=EDGE_LOOP('',(#92,#93,#94,#95)) ;
#117=EDGE_LOOP('',(#118,#119)) ;
#137=EDGE_LOOP('',(#138,#139,#140,#141)) ;
#149=EDGE_LOOP('',(#150,#151,#152,#153)) ;
#53=FACE_OUTER_BOUND('',#50,.T.) ;
#84=FACE_OUTER_BOUND('',#79,.T.) ;
#96=FACE_OUTER_BOUND('',#91,.T.) ;
#120=FACE_OUTER_BOUND('',#117,.T.) ;
#142=FACE_OUTER_BOUND('',#137,.T.) ;
#154=FACE_OUTER_BOUND('',#149,.T.) ;
#63=LINE('Line',#60,#62) ;
#70=LINE('Line',#67,#69) ;
#130=LINE('Line',#127,#129) ;
#135=LINE('Line',#132,#134) ;
#35=PLANE('',#34) ;
#102=PLANE('',#101) ;
#9=PRODUCT_CATEGORY_RELATIONSHIP(' ',' ',#7,#8) ;
#6=PRODUCT_DEFINITION_FORMATION_WITH_SPECIFIED_SOURCE('00',' ',#5,.MADE.) ;
#20=SHAPE_DEFINITION_REPRESENTATION(#11,#19) ;
#41=VERTEX_POINT('',#40) ;
#43=VERTEX_POINT('',#42) ;
#65=VERTEX_POINT('',#64) ;
#72=VERTEX_POINT('',#71) ;
#108=VERTEX_POINT('',#107) ;
#110=VERTEX_POINT('',#109) ;
#12=(LENGTH_UNIT()NAMED_UNIT(*)SI_UNIT(.MILLI.,.METRE.)) ;
#13=(NAMED_UNIT(*)PLANE_ANGLE_UNIT()SI_UNIT($,.RADIAN.)) ;
#14=(NAMED_UNIT(*)SI_UNIT($,.STERADIAN.)SOLID_ANGLE_UNIT()) ;
#16=(GEOMETRIC_REPRESENTATION_CONTEXT(3)GLOBAL_UNCERTAINTY_ASSIGNED_CONTEXT((#15))GLOBAL_UNIT_ASSIGNED_CONTEXT((#12,#13,#14))REPRESENTATION_CONTEXT(' ',' ')) ;
ENDSEC;
END-ISO-10303-21;
