ISO-10303-21;
HEADER;
/* Generated by software containing ST-Developer
 * from STEP Tools, Inc. (www.steptools.com) 
 */
/* OPTION: using custom schema-name function */

FILE_DESCRIPTION(
/* description */ (''),
/* implementation_level */ '2;1');

FILE_NAME(
/* name */ 'Entretoise 8''''',
/* time_stamp */ '2024-03-20T12:28:35+01:00',
/* author */ (''),
/* organization */ (''),
/* preprocessor_version */ 'ST-DEVELOPER v19.2',
/* originating_system */ 'Rhino 8.4',
/* authorisation */ '');

FILE_SCHEMA (('AUTOMOTIVE_DESIGN_CC2'));
ENDSEC;

DATA;
#10=SHAPE_REPRESENTATION_RELATIONSHIP('','',#145,#13);
#11=PRESENTATION_LAYER_ASSIGNMENT('Entretoise','',(#12));
#12=MANIFOLD_SOLID_BREP('brep_1',#14);
#13=ADVANCED_BREP_SHAPE_REPRESENTATION('brep_rep_0',(#12,#159),#144);
#14=CLOSED_SHELL('',(#15,#16,#17,#18,#19,#20,#21,#22));
#15=ADVANCED_FACE('',(#23),#123,.T.);
#16=ADVANCED_FACE('',(#24),#119,.T.);
#17=ADVANCED_FACE('',(#25),#124,.T.);
#18=ADVANCED_FACE('',(#26),#120,.T.);
#19=ADVANCED_FACE('',(#27),#125,.T.);
#20=ADVANCED_FACE('',(#28),#121,.T.);
#21=ADVANCED_FACE('',(#29),#126,.T.);
#22=ADVANCED_FACE('',(#30),#122,.T.);
#23=FACE_OUTER_BOUND('',#31,.T.);
#24=FACE_OUTER_BOUND('',#32,.T.);
#25=FACE_OUTER_BOUND('',#33,.T.);
#26=FACE_OUTER_BOUND('',#34,.T.);
#27=FACE_OUTER_BOUND('',#35,.T.);
#28=FACE_OUTER_BOUND('',#36,.T.);
#29=FACE_OUTER_BOUND('',#37,.T.);
#30=FACE_OUTER_BOUND('',#38,.T.);
#31=EDGE_LOOP('',(#39,#40,#41,#42));
#32=EDGE_LOOP('',(#43,#44,#45,#46));
#33=EDGE_LOOP('',(#47,#48,#49,#50));
#34=EDGE_LOOP('',(#51,#52,#53,#54));
#35=EDGE_LOOP('',(#55,#56,#57,#58));
#36=EDGE_LOOP('',(#59,#60,#61,#62));
#37=EDGE_LOOP('',(#63,#64,#65,#66));
#38=EDGE_LOOP('',(#67,#68,#69,#70));
#39=ORIENTED_EDGE('',*,*,#78,.F.);
#40=ORIENTED_EDGE('',*,*,#73,.T.);
#41=ORIENTED_EDGE('',*,*,#71,.T.);
#42=ORIENTED_EDGE('',*,*,#79,.F.);
#43=ORIENTED_EDGE('',*,*,#71,.F.);
#44=ORIENTED_EDGE('',*,*,#72,.T.);
#45=ORIENTED_EDGE('',*,*,#76,.T.);
#46=ORIENTED_EDGE('',*,*,#82,.F.);
#47=ORIENTED_EDGE('',*,*,#76,.F.);
#48=ORIENTED_EDGE('',*,*,#75,.T.);
#49=ORIENTED_EDGE('',*,*,#77,.T.);
#50=ORIENTED_EDGE('',*,*,#84,.F.);
#51=ORIENTED_EDGE('',*,*,#77,.F.);
#52=ORIENTED_EDGE('',*,*,#74,.T.);
#53=ORIENTED_EDGE('',*,*,#78,.T.);
#54=ORIENTED_EDGE('',*,*,#86,.F.);
#55=ORIENTED_EDGE('',*,*,#79,.T.);
#56=ORIENTED_EDGE('',*,*,#80,.T.);
#57=ORIENTED_EDGE('',*,*,#73,.F.);
#58=ORIENTED_EDGE('',*,*,#81,.F.);
#59=ORIENTED_EDGE('',*,*,#82,.T.);
#60=ORIENTED_EDGE('',*,*,#83,.T.);
#61=ORIENTED_EDGE('',*,*,#72,.F.);
#62=ORIENTED_EDGE('',*,*,#80,.F.);
#63=ORIENTED_EDGE('',*,*,#84,.T.);
#64=ORIENTED_EDGE('',*,*,#85,.T.);
#65=ORIENTED_EDGE('',*,*,#75,.F.);
#66=ORIENTED_EDGE('',*,*,#83,.F.);
#67=ORIENTED_EDGE('',*,*,#86,.T.);
#68=ORIENTED_EDGE('',*,*,#81,.T.);
#69=ORIENTED_EDGE('',*,*,#74,.F.);
#70=ORIENTED_EDGE('',*,*,#85,.F.);
#71=EDGE_CURVE('',#111,#116,#95,.T.);
#72=EDGE_CURVE('',#111,#114,#91,.T.);
#73=EDGE_CURVE('',#112,#111,#92,.T.);
#74=EDGE_CURVE('',#113,#112,#93,.T.);
#75=EDGE_CURVE('',#114,#113,#94,.T.);
#76=EDGE_CURVE('',#114,#117,#96,.T.);
#77=EDGE_CURVE('',#113,#118,#97,.T.);
#78=EDGE_CURVE('',#112,#115,#98,.T.);
#79=EDGE_CURVE('',#115,#116,#87,.T.);
#80=EDGE_CURVE('',#116,#111,#99,.T.);
#81=EDGE_CURVE('',#115,#112,#100,.T.);
#82=EDGE_CURVE('',#116,#117,#88,.T.);
#83=EDGE_CURVE('',#117,#114,#101,.T.);
#84=EDGE_CURVE('',#117,#118,#89,.T.);
#85=EDGE_CURVE('',#118,#113,#102,.T.);
#86=EDGE_CURVE('',#118,#115,#90,.T.);
#87=(
BOUNDED_CURVE()
B_SPLINE_CURVE(1,(#257,#258),.UNSPECIFIED.,.F.,.F.)
B_SPLINE_CURVE_WITH_KNOTS((2,2),(51.6656104865709,99.3312209731419),
 .UNSPECIFIED.)
CURVE()
GEOMETRIC_REPRESENTATION_ITEM()
RATIONAL_B_SPLINE_CURVE((1.,1.))
REPRESENTATION_ITEM('')
);
#88=(
BOUNDED_CURVE()
B_SPLINE_CURVE(1,(#265,#266),.UNSPECIFIED.,.F.,.F.)
B_SPLINE_CURVE_WITH_KNOTS((2,2),(0.,2.),.UNSPECIFIED.)
CURVE()
GEOMETRIC_REPRESENTATION_ITEM()
RATIONAL_B_SPLINE_CURVE((1.,1.))
REPRESENTATION_ITEM('')
);
#89=(
BOUNDED_CURVE()
B_SPLINE_CURVE(1,(#270,#271),.UNSPECIFIED.,.F.,.F.)
B_SPLINE_CURVE_WITH_KNOTS((2,2),(2.,49.6656104865709),.UNSPECIFIED.)
CURVE()
GEOMETRIC_REPRESENTATION_ITEM()
RATIONAL_B_SPLINE_CURVE((1.,1.))
REPRESENTATION_ITEM('')
);
#90=(
BOUNDED_CURVE()
B_SPLINE_CURVE(1,(#275,#276),.UNSPECIFIED.,.F.,.F.)
B_SPLINE_CURVE_WITH_KNOTS((2,2),(49.6656104865709,51.6656104865709),
 .UNSPECIFIED.)
CURVE()
GEOMETRIC_REPRESENTATION_ITEM()
RATIONAL_B_SPLINE_CURVE((1.,1.))
REPRESENTATION_ITEM('')
);
#91=B_SPLINE_CURVE_WITH_KNOTS('',1,(#240,#241),.UNSPECIFIED.,.F.,.F.,(2,
2),(0.,2.),.UNSPECIFIED.);
#92=B_SPLINE_CURVE_WITH_KNOTS('',1,(#242,#243),.UNSPECIFIED.,.F.,.F.,(2,
2),(51.6656104865709,99.3312209731419),.UNSPECIFIED.);
#93=B_SPLINE_CURVE_WITH_KNOTS('',1,(#244,#245),.UNSPECIFIED.,.F.,.F.,(2,
2),(49.6656104865709,51.6656104865709),.UNSPECIFIED.);
#94=B_SPLINE_CURVE_WITH_KNOTS('',1,(#246,#247),.UNSPECIFIED.,.F.,.F.,(2,
2),(2.,49.6656104865709),.UNSPECIFIED.);
#95=TRIMMED_CURVE($,#103,(#238),(#239),.T.,.CARTESIAN.);
#96=TRIMMED_CURVE($,#104,(#249),(#250),.T.,.CARTESIAN.);
#97=TRIMMED_CURVE($,#105,(#252),(#253),.T.,.CARTESIAN.);
#98=TRIMMED_CURVE($,#106,(#255),(#256),.T.,.CARTESIAN.);
#99=TRIMMED_CURVE($,#107,(#260),(#261),.T.,.CARTESIAN.);
#100=TRIMMED_CURVE($,#108,(#263),(#264),.T.,.CARTESIAN.);
#101=TRIMMED_CURVE($,#109,(#268),(#269),.T.,.CARTESIAN.);
#102=TRIMMED_CURVE($,#110,(#273),(#274),.T.,.CARTESIAN.);
#103=CIRCLE('',#151,15.05);
#104=CIRCLE('',#152,17.05);
#105=CIRCLE('',#153,14.5499153847496);
#106=CIRCLE('',#154,12.5499153847496);
#107=CIRCLE('',#155,15.05);
#108=CIRCLE('',#156,12.5499153847496);
#109=CIRCLE('',#157,17.05);
#110=CIRCLE('',#158,14.5499153847496);
#111=VERTEX_POINT('',#229);
#112=VERTEX_POINT('',#230);
#113=VERTEX_POINT('',#231);
#114=VERTEX_POINT('',#232);
#115=VERTEX_POINT('',#233);
#116=VERTEX_POINT('',#234);
#117=VERTEX_POINT('',#235);
#118=VERTEX_POINT('',#236);
#119=PLANE('',#147);
#120=PLANE('',#148);
#121=PLANE('',#149);
#122=PLANE('',#150);
#123=(
BOUNDED_SURFACE()
B_SPLINE_SURFACE(1,2,((#185,#186,#187,#188,#189),(#190,#191,#192,#193,#194)),
 .UNSPECIFIED.,.F.,.F.,.F.)
B_SPLINE_SURFACE_WITH_KNOTS((2,2),(3,2,3),(51.6656104865709,99.3312209731419),
(0.,26.6911115824662,53.3822231649323),.UNSPECIFIED.)
GEOMETRIC_REPRESENTATION_ITEM()
RATIONAL_B_SPLINE_SURFACE(((1.,0.707106781186548,1.,0.707106781186548,1.),
(1.,0.707106781186548,1.,0.707106781186548,1.)))
REPRESENTATION_ITEM('')
SURFACE()
);
#124=(
BOUNDED_SURFACE()
B_SPLINE_SURFACE(1,2,((#196,#197,#198,#199,#200),(#201,#202,#203,#204,#205)),
 .UNSPECIFIED.,.F.,.F.,.F.)
B_SPLINE_SURFACE_WITH_KNOTS((2,2),(3,2,3),(2.,49.6656104865709),(0.,26.6911115824662,
53.3822231649323),.UNSPECIFIED.)
GEOMETRIC_REPRESENTATION_ITEM()
RATIONAL_B_SPLINE_SURFACE(((1.,0.707106781186548,1.,0.707106781186548,1.),
(1.,0.707106781186548,1.,0.707106781186548,1.)))
REPRESENTATION_ITEM('')
SURFACE()
);
#125=(
BOUNDED_SURFACE()
B_SPLINE_SURFACE(1,2,((#207,#208,#209,#210,#211),(#212,#213,#214,#215,#216)),
 .UNSPECIFIED.,.F.,.F.,.F.)
B_SPLINE_SURFACE_WITH_KNOTS((2,2),(3,2,3),(51.6656104865709,99.3312209731419),
(53.3822231649323,80.0733347473985,106.764446329865),.UNSPECIFIED.)
GEOMETRIC_REPRESENTATION_ITEM()
RATIONAL_B_SPLINE_SURFACE(((1.,0.707106781186548,1.,0.707106781186548,1.),
(1.,0.707106781186548,1.,0.707106781186548,1.)))
REPRESENTATION_ITEM('')
SURFACE()
);
#126=(
BOUNDED_SURFACE()
B_SPLINE_SURFACE(1,2,((#218,#219,#220,#221,#222),(#223,#224,#225,#226,#227)),
 .UNSPECIFIED.,.F.,.F.,.F.)
B_SPLINE_SURFACE_WITH_KNOTS((2,2),(3,2,3),(2.,49.6656104865709),(53.3822231649323,
80.0733347473985,106.764446329865),.UNSPECIFIED.)
GEOMETRIC_REPRESENTATION_ITEM()
RATIONAL_B_SPLINE_SURFACE(((1.,0.707106781186548,1.,0.707106781186548,1.),
(1.,0.707106781186548,1.,0.707106781186548,1.)))
REPRESENTATION_ITEM('')
SURFACE()
);
#127=SHAPE_DEFINITION_REPRESENTATION(#128,#145);
#128=PRODUCT_DEFINITION_SHAPE($,$,#130);
#129=PRODUCT_DEFINITION_CONTEXT('3D Mechanical Parts',#134,'design');
#130=PRODUCT_DEFINITION('A','First version',#131,#129);
#131=PRODUCT_DEFINITION_FORMATION_WITH_SPECIFIED_SOURCE('A',
'First version',#136,.MADE.);
#132=PRODUCT_RELATED_PRODUCT_CATEGORY('tool','tool',(#136));
#133=APPLICATION_PROTOCOL_DEFINITION('Draft International Standard',
'automotive_design',1999,#134);
#134=APPLICATION_CONTEXT(
'data for automotive mechanical design processes');
#135=PRODUCT_CONTEXT('3D Mechanical Parts',#134,'mechanical');
#136=PRODUCT('Document','Document','',(#135));
#137=(
LENGTH_UNIT()
NAMED_UNIT(*)
SI_UNIT(.MILLI.,.METRE.)
);
#138=(
NAMED_UNIT(*)
PLANE_ANGLE_UNIT()
SI_UNIT($,.RADIAN.)
);
#139=DIMENSIONAL_EXPONENTS(0.,0.,0.,0.,0.,0.,0.);
#140=PLANE_ANGLE_MEASURE_WITH_UNIT(PLANE_ANGLE_MEASURE(0.01745329252),#138);
#141=(
CONVERSION_BASED_UNIT('DEGREES',#140)
NAMED_UNIT(#139)
PLANE_ANGLE_UNIT()
);
#142=(
NAMED_UNIT(*)
SI_UNIT($,.STERADIAN.)
SOLID_ANGLE_UNIT()
);
#143=UNCERTAINTY_MEASURE_WITH_UNIT(LENGTH_MEASURE(0.001),#137,
'DISTANCE_ACCURACY_VALUE',
'Maximum model space distance between geometric entities at asserted c
onnectivities');
#144=(
GEOMETRIC_REPRESENTATION_CONTEXT(3)
GLOBAL_UNCERTAINTY_ASSIGNED_CONTEXT((#143))
GLOBAL_UNIT_ASSIGNED_CONTEXT((#142,#141,#137))
REPRESENTATION_CONTEXT('ID1','3D')
);
#145=SHAPE_REPRESENTATION('Document',(#146,#159),#144);
#146=AXIS2_PLACEMENT_3D($,#184,#160,#161);
#147=AXIS2_PLACEMENT_3D('',#195,#162,$);
#148=AXIS2_PLACEMENT_3D('',#206,#163,$);
#149=AXIS2_PLACEMENT_3D('',#217,#164,$);
#150=AXIS2_PLACEMENT_3D('',#228,#165,$);
#151=AXIS2_PLACEMENT_3D($,#237,#166,#167);
#152=AXIS2_PLACEMENT_3D($,#248,#168,#169);
#153=AXIS2_PLACEMENT_3D($,#251,#170,#171);
#154=AXIS2_PLACEMENT_3D($,#254,#172,#173);
#155=AXIS2_PLACEMENT_3D($,#259,#174,#175);
#156=AXIS2_PLACEMENT_3D($,#262,#176,#177);
#157=AXIS2_PLACEMENT_3D($,#267,#178,#179);
#158=AXIS2_PLACEMENT_3D($,#272,#180,#181);
#159=AXIS2_PLACEMENT_3D($,#277,#182,#183);
#160=DIRECTION('',(0.,0.,1.));
#161=DIRECTION('',(1.,0.,0.));
#162=DIRECTION('',(1.,0.,0.));
#163=DIRECTION('',(-1.,0.,0.));
#164=DIRECTION('',(1.,0.,0.));
#165=DIRECTION('',(-1.,0.,0.));
#166=DIRECTION('',(1.,-2.1245463859937E-15,2.360607095544E-16));
#167=DIRECTION('',(2.36060709554851E-15,1.,2.12211818199544E-13));
#168=DIRECTION('',(1.,-1.87533273367768E-15,2.08370303741965E-16));
#169=DIRECTION('',(1.66696242993572E-15,1.,1.67270701065741E-17));
#170=DIRECTION('',(1.,-1.46504508851959E-15,1.19242061744188E-31));
#171=DIRECTION('',(1.46504508851959E-15,1.,0.));
#172=DIRECTION('',(1.,-1.69851998354556E-15,-2.03454504929938E-27));
#173=DIRECTION('',(1.69851998354556E-15,1.,1.1979807354428E-12));
#174=DIRECTION('',(1.,-2.1245463859936E-15,-2.36060709555301E-16));
#175=DIRECTION('',(-1.8884856764388E-15,-1.,-2.12172813583878E-13));
#176=DIRECTION('',(1.,-1.69851998354556E-15,-2.03454504929938E-27));
#177=DIRECTION('',(-1.69851998354556E-15,-1.,-1.19785827076289E-12));
#178=DIRECTION('',(1.,-1.87533273367768E-15,-2.08370303741964E-16));
#179=DIRECTION('',(-2.08370303741965E-15,-1.,1.05737609808161E-16));
#180=DIRECTION('',(1.,-1.46504508851959E-15,4.76968246976752E-31));
#181=DIRECTION('',(-1.46504508851959E-15,-1.,1.22464679914736E-16));
#182=DIRECTION('',(0.,0.,1.));
#183=DIRECTION('',(1.,0.,0.));
#184=CARTESIAN_POINT('',(0.,0.,0.));
#185=CARTESIAN_POINT('',(-35.8001651334038,12.5499153847496,1.50345568623672E-11));
#186=CARTESIAN_POINT('',(-35.8001651334038,12.5499153847345,12.5499153847646));
#187=CARTESIAN_POINT('',(-35.8001651334038,-1.5033788401682E-11,12.5499153847496));
#188=CARTESIAN_POINT('',(-35.8001651334038,-12.5499153847646,12.5499153847345));
#189=CARTESIAN_POINT('',(-35.8001651334038,-12.5499153847496,-1.50330199409967E-11));
#190=CARTESIAN_POINT('',(34.7998113269759,15.05,3.19446628825567E-12));
#191=CARTESIAN_POINT('',(34.7998113269759,15.0499999999968,15.0500000000032));
#192=CARTESIAN_POINT('',(34.7998113269759,-3.19354474153931E-12,15.05));
#193=CARTESIAN_POINT('',(34.7998113269759,-15.0500000000032,15.0499999999968));
#194=CARTESIAN_POINT('',(34.7998113269759,-15.05,-3.19262319482296E-12));
#195=CARTESIAN_POINT('',(34.7998113269759,15.05,3.19446628825567E-12));
#196=CARTESIAN_POINT('',(34.7998113269759,17.05,0.));
#197=CARTESIAN_POINT('',(34.7998113269759,17.05,17.05));
#198=CARTESIAN_POINT('',(34.7998113269759,1.04401139627312E-15,17.05));
#199=CARTESIAN_POINT('',(34.7998113269759,-17.05,17.05));
#200=CARTESIAN_POINT('',(34.7998113269759,-17.05,2.08802279254624E-15));
#201=CARTESIAN_POINT('',(-35.8001651334038,14.5499153847496,0.));
#202=CARTESIAN_POINT('',(-35.8001651334038,14.5499153847496,14.5499153847496));
#203=CARTESIAN_POINT('',(-35.8001651334038,8.90925365189919E-16,14.5499153847496));
#204=CARTESIAN_POINT('',(-35.8001651334038,-14.5499153847496,14.5499153847496));
#205=CARTESIAN_POINT('',(-35.8001651334038,-14.5499153847496,1.78185073037984E-15));
#206=CARTESIAN_POINT('',(-35.8001651334038,14.5499153847496,0.));
#207=CARTESIAN_POINT('',(-35.8001651334038,-12.5499153847496,-1.50330199409967E-11));
#208=CARTESIAN_POINT('',(-35.8001651334038,-12.5499153847345,-12.5499153847646));
#209=CARTESIAN_POINT('',(-35.8001651334038,1.50322514803114E-11,-12.5499153847496));
#210=CARTESIAN_POINT('',(-35.8001651334038,12.5499153847646,-12.5499153847345));
#211=CARTESIAN_POINT('',(-35.8001651334038,12.5499153847496,1.50345568623672E-11));
#212=CARTESIAN_POINT('',(34.7998113269759,-15.05,-3.19262319482296E-12));
#213=CARTESIAN_POINT('',(34.7998113269759,-15.0499999999968,-15.0500000000032));
#214=CARTESIAN_POINT('',(34.7998113269759,3.1917016481066E-12,-15.05));
#215=CARTESIAN_POINT('',(34.7998113269759,15.0500000000032,-15.0499999999968));
#216=CARTESIAN_POINT('',(34.7998113269759,15.05,3.19446628825567E-12));
#217=CARTESIAN_POINT('',(34.7998113269759,-15.05,-3.19262319482296E-12));
#218=CARTESIAN_POINT('',(34.7998113269759,-17.05,2.08802279254624E-15));
#219=CARTESIAN_POINT('',(34.7998113269759,-17.05,-17.05));
#220=CARTESIAN_POINT('',(34.7998113269759,-3.13203418881936E-15,-17.05));
#221=CARTESIAN_POINT('',(34.7998113269759,17.05,-17.05));
#222=CARTESIAN_POINT('',(34.7998113269759,17.05,0.));
#223=CARTESIAN_POINT('',(-35.8001651334038,-14.5499153847496,1.78185073037984E-15));
#224=CARTESIAN_POINT('',(-35.8001651334038,-14.5499153847496,-14.5499153847496));
#225=CARTESIAN_POINT('',(-35.8001651334038,-2.67277609556976E-15,-14.5499153847496));
#226=CARTESIAN_POINT('',(-35.8001651334038,14.5499153847496,-14.5499153847496));
#227=CARTESIAN_POINT('',(-35.8001651334038,14.5499153847496,0.));
#228=CARTESIAN_POINT('',(-35.8001651334038,-14.5499153847496,1.78185073037984E-15));
#229=CARTESIAN_POINT('',(34.7998113269759,15.05,3.19446628825567E-12));
#230=CARTESIAN_POINT('',(-35.8001651334038,12.5499153847496,1.50345568623672E-11));
#231=CARTESIAN_POINT('',(-35.8001651334038,14.5499153847496,0.));
#232=CARTESIAN_POINT('',(34.7998113269759,17.05,0.));
#233=CARTESIAN_POINT('',(-35.8001651334038,-12.5499153847496,-1.50330199409967E-11));
#234=CARTESIAN_POINT('',(34.7998113269758,-15.05,-3.19262319482296E-12));
#235=CARTESIAN_POINT('',(34.7998113269758,-17.05,2.08802279254624E-15));
#236=CARTESIAN_POINT('',(-35.8001651334038,-14.5499153847496,1.78185073037984E-15));
#237=CARTESIAN_POINT('',(34.7998113269759,1.74550661886406E-16,6.78424352538761E-16));
#238=CARTESIAN_POINT('',(34.7998113269759,15.05,3.19446628825567E-12));
#239=CARTESIAN_POINT('',(34.7998113269758,-15.05,-3.19126634611788E-12));
#240=CARTESIAN_POINT('',(34.7998113269759,15.05,3.19446628825567E-12));
#241=CARTESIAN_POINT('',(34.7998113269759,17.05,0.));
#242=CARTESIAN_POINT('',(-35.8001651334038,12.5499153847496,1.50345568623672E-11));
#243=CARTESIAN_POINT('',(34.7998113269759,15.05,3.19446628825567E-12));
#244=CARTESIAN_POINT('',(-35.8001651334038,14.5499153847496,0.));
#245=CARTESIAN_POINT('',(-35.8001651334038,12.5499153847496,1.50345568623672E-11));
#246=CARTESIAN_POINT('',(34.7998113269759,17.05,0.));
#247=CARTESIAN_POINT('',(-35.8001651334038,14.5499153847496,0.));
#248=CARTESIAN_POINT('',(34.7998113269759,5.46209739597619E-17,-2.85196545317089E-16));
#249=CARTESIAN_POINT('',(34.7998113269759,17.05,0.));
#250=CARTESIAN_POINT('',(34.7998113269758,-17.05,1.51762970191206E-15));
#251=CARTESIAN_POINT('',(-35.8001651334038,-3.06250514891199E-16,0.));
#252=CARTESIAN_POINT('',(-35.8001651334038,14.5499153847496,0.));
#253=CARTESIAN_POINT('',(-35.8001651334038,-14.5499153847496,1.78185073037984E-15));
#254=CARTESIAN_POINT('',(-35.8001651334038,-7.40328487086555E-16,-8.86776691613818E-28));
#255=CARTESIAN_POINT('',(-35.8001651334038,12.5499153847496,1.50345568623672E-11));
#256=CARTESIAN_POINT('',(-35.8001651334038,-12.5499153847496,-1.50330199409967E-11));
#257=CARTESIAN_POINT('',(-35.8001651334038,-12.5499153847496,-1.50330199409967E-11));
#258=CARTESIAN_POINT('',(34.7998113269759,-15.05,-3.19262319482296E-12));
#259=CARTESIAN_POINT('',(34.7998113269759,-1.08152330506059E-15,5.77649614408062E-16));
#260=CARTESIAN_POINT('',(34.7998113269758,-15.05,-3.19262319482296E-12));
#261=CARTESIAN_POINT('',(34.7998113269759,15.05,3.19193540061906E-12));
#262=CARTESIAN_POINT('',(-35.8001651334038,5.1574547986046E-16,6.13380606709134E-28));
#263=CARTESIAN_POINT('',(-35.8001651334038,-12.5499153847496,-1.50330199409967E-11));
#264=CARTESIAN_POINT('',(-35.8001651334038,12.5499153847496,1.50314830196261E-11));
#265=CARTESIAN_POINT('',(34.7998113269759,-15.05,-3.19262319482296E-12));
#266=CARTESIAN_POINT('',(34.7998113269759,-17.05,2.08802279254624E-15));
#267=CARTESIAN_POINT('',(34.7998113269759,1.31069494090678E-15,2.85196545317089E-16));
#268=CARTESIAN_POINT('',(34.7998113269758,-17.05,2.08802279254624E-15));
#269=CARTESIAN_POINT('',(34.7998113269759,17.05,-3.6056524944583E-15));
#270=CARTESIAN_POINT('',(34.7998113269759,-17.05,2.08802279254624E-15));
#271=CARTESIAN_POINT('',(-35.8001651334038,-14.5499153847496,1.78185073037984E-15));
#272=CARTESIAN_POINT('',(-35.8001651334038,-3.06250514891204E-16,-4.43734259186819E-30));
#273=CARTESIAN_POINT('',(-35.8001651334038,-14.5499153847496,1.78185073037984E-15));
#274=CARTESIAN_POINT('',(-35.8001651334038,14.5499153847496,-3.56370146075968E-15));
#275=CARTESIAN_POINT('',(-35.8001651334038,-14.5499153847496,1.78185073037984E-15));
#276=CARTESIAN_POINT('',(-35.8001651334038,-12.5499153847496,-1.50330199409967E-11));
#277=CARTESIAN_POINT('',(0.,0.,0.));
ENDSEC;
END-ISO-10303-21;
