ISO-10303-21;
HEADER;
/* Generated by software containing ST-Developer
 * from STEP Tools, Inc. (www.steptools.com) 
 */

FILE_DESCRIPTION(
/* description */ (''),
/* implementation_level */ '2;1');

FILE_NAME(
/* name */ 
'C:\\Users\\Nous\\Desktop\\construction\\chasse_chevre\\platine.stp',
/* time_stamp */ '2024-06-17T12:45:30+02:00',
/* author */ ('Nous'),
/* organization */ (''),
/* preprocessor_version */ 'ST-DEVELOPER v17',
/* originating_system */ 'Autodesk Inventor 2019',
/* authorisation */ '');

FILE_SCHEMA (('AUTOMOTIVE_DESIGN { 1 0 10303 214 3 1 1 }'));
ENDSEC;

DATA;
#10=MECHANICAL_DESIGN_GEOMETRIC_PRESENTATION_REPRESENTATION('',(#13),#411);
#11=SHAPE_REPRESENTATION_RELATIONSHIP('SRR','None',#418,#12);
#12=ADVANCED_BREP_SHAPE_REPRESENTATION('',(#14),#410);
#13=STYLED_ITEM('',(#428),#14);
#14=MANIFOLD_SOLID_BREP('Solid1',#221);
#15=FACE_BOUND('',#52,.T.);
#16=FACE_BOUND('',#55,.T.);
#17=FACE_BOUND('',#56,.T.);
#18=FACE_BOUND('',#57,.T.);
#19=FACE_BOUND('',#58,.T.);
#20=FACE_BOUND('',#59,.T.);
#21=PLANE('',#246);
#22=PLANE('',#251);
#23=PLANE('',#261);
#24=PLANE('',#263);
#25=PLANE('',#265);
#26=PLANE('',#267);
#27=CYLINDRICAL_SURFACE('',#244,64.);
#28=CYLINDRICAL_SURFACE('',#257,6.25);
#29=CYLINDRICAL_SURFACE('',#269,11.5);
#30=CYLINDRICAL_SURFACE('',#270,11.5);
#31=CYLINDRICAL_SURFACE('',#271,11.5);
#32=CYLINDRICAL_SURFACE('',#272,11.5);
#33=FACE_OUTER_BOUND('',#49,.T.);
#34=FACE_OUTER_BOUND('',#50,.T.);
#35=FACE_OUTER_BOUND('',#51,.T.);
#36=FACE_OUTER_BOUND('',#53,.T.);
#37=FACE_OUTER_BOUND('',#54,.T.);
#38=FACE_OUTER_BOUND('',#60,.T.);
#39=FACE_OUTER_BOUND('',#61,.T.);
#40=FACE_OUTER_BOUND('',#62,.T.);
#41=FACE_OUTER_BOUND('',#63,.T.);
#42=FACE_OUTER_BOUND('',#64,.T.);
#43=FACE_OUTER_BOUND('',#65,.T.);
#44=FACE_OUTER_BOUND('',#66,.T.);
#45=FACE_OUTER_BOUND('',#67,.T.);
#46=FACE_OUTER_BOUND('',#68,.T.);
#47=FACE_OUTER_BOUND('',#69,.T.);
#48=FACE_OUTER_BOUND('',#70,.T.);
#49=EDGE_LOOP('',(#149,#150,#151,#152));
#50=EDGE_LOOP('',(#153,#154,#155,#156));
#51=EDGE_LOOP('',(#157));
#52=EDGE_LOOP('',(#158));
#53=EDGE_LOOP('',(#159,#160,#161,#162));
#54=EDGE_LOOP('',(#163));
#55=EDGE_LOOP('',(#164));
#56=EDGE_LOOP('',(#165));
#57=EDGE_LOOP('',(#166));
#58=EDGE_LOOP('',(#167));
#59=EDGE_LOOP('',(#168));
#60=EDGE_LOOP('',(#169,#170,#171,#172));
#61=EDGE_LOOP('',(#173,#174,#175,#176));
#62=EDGE_LOOP('',(#177,#178,#179,#180));
#63=EDGE_LOOP('',(#181));
#64=EDGE_LOOP('',(#182));
#65=EDGE_LOOP('',(#183));
#66=EDGE_LOOP('',(#184));
#67=EDGE_LOOP('',(#185,#186,#187,#188));
#68=EDGE_LOOP('',(#189,#190,#191,#192));
#69=EDGE_LOOP('',(#193,#194,#195,#196));
#70=EDGE_LOOP('',(#197,#198,#199,#200));
#71=LINE('',#354,#81);
#72=LINE('',#358,#82);
#73=LINE('',#367,#83);
#74=LINE('',#382,#84);
#75=LINE('',#385,#85);
#76=LINE('',#387,#86);
#77=LINE('',#401,#87);
#78=LINE('',#403,#88);
#79=LINE('',#405,#89);
#80=LINE('',#407,#90);
#81=VECTOR('',#279,63.);
#82=VECTOR('',#284,64.);
#83=VECTOR('',#295,7.25);
#84=VECTOR('',#312,6.25);
#85=VECTOR('',#317,63.);
#86=VECTOR('',#320,7.25);
#87=VECTOR('',#339,11.5);
#88=VECTOR('',#342,11.5);
#89=VECTOR('',#345,11.5);
#90=VECTOR('',#348,11.5);
#91=CIRCLE('',#242,62.);
#92=CIRCLE('',#243,64.);
#93=CIRCLE('',#245,64.);
#94=CIRCLE('',#247,8.25);
#95=CIRCLE('',#249,8.25);
#96=CIRCLE('',#250,6.25);
#97=CIRCLE('',#252,62.);
#98=CIRCLE('',#253,11.5);
#99=CIRCLE('',#254,11.5);
#100=CIRCLE('',#255,11.5);
#101=CIRCLE('',#256,11.5);
#102=CIRCLE('',#258,6.25);
#103=CIRCLE('',#262,11.5);
#104=CIRCLE('',#264,11.5);
#105=CIRCLE('',#266,11.5);
#106=CIRCLE('',#268,11.5);
#107=VERTEX_POINT('',#351);
#108=VERTEX_POINT('',#353);
#109=VERTEX_POINT('',#357);
#110=VERTEX_POINT('',#361);
#111=VERTEX_POINT('',#364);
#112=VERTEX_POINT('',#366);
#113=VERTEX_POINT('',#370);
#114=VERTEX_POINT('',#372);
#115=VERTEX_POINT('',#374);
#116=VERTEX_POINT('',#376);
#117=VERTEX_POINT('',#378);
#118=VERTEX_POINT('',#381);
#119=VERTEX_POINT('',#389);
#120=VERTEX_POINT('',#392);
#121=VERTEX_POINT('',#395);
#122=VERTEX_POINT('',#398);
#123=EDGE_CURVE('',#107,#107,#91,.T.);
#124=EDGE_CURVE('',#107,#108,#71,.T.);
#125=EDGE_CURVE('',#108,#108,#92,.T.);
#126=EDGE_CURVE('',#108,#109,#72,.T.);
#127=EDGE_CURVE('',#109,#109,#93,.T.);
#128=EDGE_CURVE('',#110,#110,#94,.T.);
#129=EDGE_CURVE('',#111,#111,#95,.T.);
#130=EDGE_CURVE('',#111,#112,#73,.T.);
#131=EDGE_CURVE('',#112,#112,#96,.T.);
#132=EDGE_CURVE('',#113,#113,#97,.T.);
#133=EDGE_CURVE('',#114,#114,#98,.T.);
#134=EDGE_CURVE('',#115,#115,#99,.T.);
#135=EDGE_CURVE('',#116,#116,#100,.T.);
#136=EDGE_CURVE('',#117,#117,#101,.T.);
#137=EDGE_CURVE('',#112,#118,#74,.T.);
#138=EDGE_CURVE('',#118,#118,#102,.T.);
#139=EDGE_CURVE('',#113,#109,#75,.T.);
#140=EDGE_CURVE('',#110,#118,#76,.T.);
#141=EDGE_CURVE('',#119,#119,#103,.T.);
#142=EDGE_CURVE('',#120,#120,#104,.T.);
#143=EDGE_CURVE('',#121,#121,#105,.T.);
#144=EDGE_CURVE('',#122,#122,#106,.T.);
#145=EDGE_CURVE('',#114,#122,#77,.T.);
#146=EDGE_CURVE('',#115,#121,#78,.T.);
#147=EDGE_CURVE('',#116,#120,#79,.T.);
#148=EDGE_CURVE('',#117,#119,#80,.T.);
#149=ORIENTED_EDGE('',*,*,#123,.T.);
#150=ORIENTED_EDGE('',*,*,#124,.T.);
#151=ORIENTED_EDGE('',*,*,#125,.T.);
#152=ORIENTED_EDGE('',*,*,#124,.F.);
#153=ORIENTED_EDGE('',*,*,#125,.F.);
#154=ORIENTED_EDGE('',*,*,#126,.T.);
#155=ORIENTED_EDGE('',*,*,#127,.F.);
#156=ORIENTED_EDGE('',*,*,#126,.F.);
#157=ORIENTED_EDGE('',*,*,#123,.F.);
#158=ORIENTED_EDGE('',*,*,#128,.F.);
#159=ORIENTED_EDGE('',*,*,#129,.T.);
#160=ORIENTED_EDGE('',*,*,#130,.T.);
#161=ORIENTED_EDGE('',*,*,#131,.T.);
#162=ORIENTED_EDGE('',*,*,#130,.F.);
#163=ORIENTED_EDGE('',*,*,#132,.F.);
#164=ORIENTED_EDGE('',*,*,#133,.T.);
#165=ORIENTED_EDGE('',*,*,#134,.T.);
#166=ORIENTED_EDGE('',*,*,#135,.T.);
#167=ORIENTED_EDGE('',*,*,#136,.T.);
#168=ORIENTED_EDGE('',*,*,#129,.F.);
#169=ORIENTED_EDGE('',*,*,#131,.F.);
#170=ORIENTED_EDGE('',*,*,#137,.T.);
#171=ORIENTED_EDGE('',*,*,#138,.F.);
#172=ORIENTED_EDGE('',*,*,#137,.F.);
#173=ORIENTED_EDGE('',*,*,#132,.T.);
#174=ORIENTED_EDGE('',*,*,#139,.T.);
#175=ORIENTED_EDGE('',*,*,#127,.T.);
#176=ORIENTED_EDGE('',*,*,#139,.F.);
#177=ORIENTED_EDGE('',*,*,#128,.T.);
#178=ORIENTED_EDGE('',*,*,#140,.T.);
#179=ORIENTED_EDGE('',*,*,#138,.T.);
#180=ORIENTED_EDGE('',*,*,#140,.F.);
#181=ORIENTED_EDGE('',*,*,#141,.F.);
#182=ORIENTED_EDGE('',*,*,#142,.F.);
#183=ORIENTED_EDGE('',*,*,#143,.F.);
#184=ORIENTED_EDGE('',*,*,#144,.F.);
#185=ORIENTED_EDGE('',*,*,#133,.F.);
#186=ORIENTED_EDGE('',*,*,#145,.T.);
#187=ORIENTED_EDGE('',*,*,#144,.T.);
#188=ORIENTED_EDGE('',*,*,#145,.F.);
#189=ORIENTED_EDGE('',*,*,#134,.F.);
#190=ORIENTED_EDGE('',*,*,#146,.T.);
#191=ORIENTED_EDGE('',*,*,#143,.T.);
#192=ORIENTED_EDGE('',*,*,#146,.F.);
#193=ORIENTED_EDGE('',*,*,#135,.F.);
#194=ORIENTED_EDGE('',*,*,#147,.T.);
#195=ORIENTED_EDGE('',*,*,#142,.T.);
#196=ORIENTED_EDGE('',*,*,#147,.F.);
#197=ORIENTED_EDGE('',*,*,#136,.F.);
#198=ORIENTED_EDGE('',*,*,#148,.T.);
#199=ORIENTED_EDGE('',*,*,#141,.T.);
#200=ORIENTED_EDGE('',*,*,#148,.F.);
#201=CONICAL_SURFACE('',#241,63.,0.785398163397448);
#202=CONICAL_SURFACE('',#248,7.25,0.785398163397448);
#203=CONICAL_SURFACE('',#259,63.,0.785398163397449);
#204=CONICAL_SURFACE('',#260,7.25,0.785398163397448);
#205=ADVANCED_FACE('',(#33),#201,.T.);
#206=ADVANCED_FACE('',(#34),#27,.T.);
#207=ADVANCED_FACE('',(#35,#15),#21,.T.);
#208=ADVANCED_FACE('',(#36),#202,.F.);
#209=ADVANCED_FACE('',(#37,#16,#17,#18,#19,#20),#22,.F.);
#210=ADVANCED_FACE('',(#38),#28,.F.);
#211=ADVANCED_FACE('',(#39),#203,.T.);
#212=ADVANCED_FACE('',(#40),#204,.F.);
#213=ADVANCED_FACE('',(#41),#23,.F.);
#214=ADVANCED_FACE('',(#42),#24,.F.);
#215=ADVANCED_FACE('',(#43),#25,.F.);
#216=ADVANCED_FACE('',(#44),#26,.F.);
#217=ADVANCED_FACE('',(#45),#29,.F.);
#218=ADVANCED_FACE('',(#46),#30,.F.);
#219=ADVANCED_FACE('',(#47),#31,.F.);
#220=ADVANCED_FACE('',(#48),#32,.F.);
#221=CLOSED_SHELL('',(#205,#206,#207,#208,#209,#210,#211,#212,#213,#214,
#215,#216,#217,#218,#219,#220));
#222=DERIVED_UNIT_ELEMENT(#224,1.);
#223=DERIVED_UNIT_ELEMENT(#413,3.);
#224=(
MASS_UNIT()
NAMED_UNIT(*)
SI_UNIT($,.GRAM.)
);
#225=DERIVED_UNIT((#222,#223));
#226=MEASURE_REPRESENTATION_ITEM('density measure',
POSITIVE_RATIO_MEASURE(1.),#225);
#227=PROPERTY_DEFINITION_REPRESENTATION(#232,#229);
#228=PROPERTY_DEFINITION_REPRESENTATION(#233,#230);
#229=REPRESENTATION('material name',(#231),#410);
#230=REPRESENTATION('density',(#226),#410);
#231=DESCRIPTIVE_REPRESENTATION_ITEM('Generic','Generic');
#232=PROPERTY_DEFINITION('material property','material name',#420);
#233=PROPERTY_DEFINITION('material property','density of part',#420);
#234=DATE_TIME_ROLE('creation_date');
#235=APPLIED_DATE_AND_TIME_ASSIGNMENT(#236,#234,(#420));
#236=DATE_AND_TIME(#237,#238);
#237=CALENDAR_DATE(2024,17,6);
#238=LOCAL_TIME(11,15,35.,#239);
#239=COORDINATED_UNIVERSAL_TIME_OFFSET(0,0,.BEHIND.);
#240=AXIS2_PLACEMENT_3D('placement',#349,#273,#274);
#241=AXIS2_PLACEMENT_3D('',#350,#275,#276);
#242=AXIS2_PLACEMENT_3D('',#352,#277,#278);
#243=AXIS2_PLACEMENT_3D('',#355,#280,#281);
#244=AXIS2_PLACEMENT_3D('',#356,#282,#283);
#245=AXIS2_PLACEMENT_3D('',#359,#285,#286);
#246=AXIS2_PLACEMENT_3D('',#360,#287,#288);
#247=AXIS2_PLACEMENT_3D('',#362,#289,#290);
#248=AXIS2_PLACEMENT_3D('',#363,#291,#292);
#249=AXIS2_PLACEMENT_3D('',#365,#293,#294);
#250=AXIS2_PLACEMENT_3D('',#368,#296,#297);
#251=AXIS2_PLACEMENT_3D('',#369,#298,#299);
#252=AXIS2_PLACEMENT_3D('',#371,#300,#301);
#253=AXIS2_PLACEMENT_3D('',#373,#302,#303);
#254=AXIS2_PLACEMENT_3D('',#375,#304,#305);
#255=AXIS2_PLACEMENT_3D('',#377,#306,#307);
#256=AXIS2_PLACEMENT_3D('',#379,#308,#309);
#257=AXIS2_PLACEMENT_3D('',#380,#310,#311);
#258=AXIS2_PLACEMENT_3D('',#383,#313,#314);
#259=AXIS2_PLACEMENT_3D('',#384,#315,#316);
#260=AXIS2_PLACEMENT_3D('',#386,#318,#319);
#261=AXIS2_PLACEMENT_3D('',#388,#321,#322);
#262=AXIS2_PLACEMENT_3D('',#390,#323,#324);
#263=AXIS2_PLACEMENT_3D('',#391,#325,#326);
#264=AXIS2_PLACEMENT_3D('',#393,#327,#328);
#265=AXIS2_PLACEMENT_3D('',#394,#329,#330);
#266=AXIS2_PLACEMENT_3D('',#396,#331,#332);
#267=AXIS2_PLACEMENT_3D('',#397,#333,#334);
#268=AXIS2_PLACEMENT_3D('',#399,#335,#336);
#269=AXIS2_PLACEMENT_3D('',#400,#337,#338);
#270=AXIS2_PLACEMENT_3D('',#402,#340,#341);
#271=AXIS2_PLACEMENT_3D('',#404,#343,#344);
#272=AXIS2_PLACEMENT_3D('',#406,#346,#347);
#273=DIRECTION('axis',(0.,0.,1.));
#274=DIRECTION('refdir',(1.,0.,0.));
#275=DIRECTION('center_axis',(0.,0.,-1.));
#276=DIRECTION('ref_axis',(-1.,0.,0.));
#277=DIRECTION('center_axis',(0.,0.,-1.));
#278=DIRECTION('ref_axis',(-1.,0.,0.));
#279=DIRECTION('',(0.707106781186547,8.65956056235493E-17,-0.707106781186547));
#280=DIRECTION('center_axis',(0.,0.,1.));
#281=DIRECTION('ref_axis',(-1.,0.,0.));
#282=DIRECTION('center_axis',(0.,0.,1.));
#283=DIRECTION('ref_axis',(-1.,0.,0.));
#284=DIRECTION('',(0.,0.,-1.));
#285=DIRECTION('center_axis',(0.,0.,-1.));
#286=DIRECTION('ref_axis',(-1.,0.,0.));
#287=DIRECTION('center_axis',(0.,0.,1.));
#288=DIRECTION('ref_axis',(1.,0.,0.));
#289=DIRECTION('center_axis',(0.,0.,1.));
#290=DIRECTION('ref_axis',(1.,0.,0.));
#291=DIRECTION('center_axis',(0.,0.,-1.));
#292=DIRECTION('ref_axis',(1.,0.,0.));
#293=DIRECTION('center_axis',(0.,0.,-1.));
#294=DIRECTION('ref_axis',(1.,0.,0.));
#295=DIRECTION('',(0.707106781186547,-8.65956056235493E-17,0.707106781186548));
#296=DIRECTION('center_axis',(0.,0.,1.));
#297=DIRECTION('ref_axis',(1.,0.,0.));
#298=DIRECTION('center_axis',(0.,0.,1.));
#299=DIRECTION('ref_axis',(1.,0.,0.));
#300=DIRECTION('center_axis',(0.,0.,1.));
#301=DIRECTION('ref_axis',(-1.,0.,0.));
#302=DIRECTION('center_axis',(0.,0.,1.));
#303=DIRECTION('ref_axis',(-1.,0.,0.));
#304=DIRECTION('center_axis',(0.,0.,1.));
#305=DIRECTION('ref_axis',(-1.,0.,0.));
#306=DIRECTION('center_axis',(0.,0.,1.));
#307=DIRECTION('ref_axis',(-1.,0.,0.));
#308=DIRECTION('center_axis',(0.,0.,1.));
#309=DIRECTION('ref_axis',(-1.,0.,0.));
#310=DIRECTION('center_axis',(0.,0.,1.));
#311=DIRECTION('ref_axis',(1.,0.,0.));
#312=DIRECTION('',(0.,0.,1.));
#313=DIRECTION('center_axis',(0.,0.,-1.));
#314=DIRECTION('ref_axis',(1.,0.,0.));
#315=DIRECTION('center_axis',(0.,0.,1.));
#316=DIRECTION('ref_axis',(-1.,0.,0.));
#317=DIRECTION('',(0.707106781186548,-8.65956056235494E-17,0.707106781186547));
#318=DIRECTION('center_axis',(0.,0.,1.));
#319=DIRECTION('ref_axis',(1.,0.,0.));
#320=DIRECTION('',(0.707106781186547,8.65956056235493E-17,-0.707106781186548));
#321=DIRECTION('center_axis',(0.,0.,1.));
#322=DIRECTION('ref_axis',(1.,0.,0.));
#323=DIRECTION('center_axis',(0.,0.,1.));
#324=DIRECTION('ref_axis',(-1.,0.,0.));
#325=DIRECTION('center_axis',(0.,0.,1.));
#326=DIRECTION('ref_axis',(1.,0.,0.));
#327=DIRECTION('center_axis',(0.,0.,1.));
#328=DIRECTION('ref_axis',(-1.,0.,0.));
#329=DIRECTION('center_axis',(0.,0.,1.));
#330=DIRECTION('ref_axis',(1.,0.,0.));
#331=DIRECTION('center_axis',(0.,0.,1.));
#332=DIRECTION('ref_axis',(-1.,0.,0.));
#333=DIRECTION('center_axis',(0.,0.,1.));
#334=DIRECTION('ref_axis',(1.,0.,0.));
#335=DIRECTION('center_axis',(0.,0.,1.));
#336=DIRECTION('ref_axis',(-1.,0.,0.));
#337=DIRECTION('center_axis',(0.,0.,1.));
#338=DIRECTION('ref_axis',(-1.,0.,0.));
#339=DIRECTION('',(0.,0.,1.));
#340=DIRECTION('center_axis',(0.,0.,1.));
#341=DIRECTION('ref_axis',(-1.,0.,0.));
#342=DIRECTION('',(0.,0.,1.));
#343=DIRECTION('center_axis',(0.,0.,1.));
#344=DIRECTION('ref_axis',(-1.,0.,0.));
#345=DIRECTION('',(0.,0.,1.));
#346=DIRECTION('center_axis',(0.,0.,1.));
#347=DIRECTION('ref_axis',(-1.,0.,0.));
#348=DIRECTION('',(0.,0.,1.));
#349=CARTESIAN_POINT('',(0.,0.,0.));
#350=CARTESIAN_POINT('Origin',(0.,0.,26.5));
#351=CARTESIAN_POINT('',(62.,-7.59281015471359E-15,27.5));
#352=CARTESIAN_POINT('Origin',(0.,0.,27.5));
#353=CARTESIAN_POINT('',(64.,7.83773951454306E-15,25.5));
#354=CARTESIAN_POINT('',(63.,7.71527483462833E-15,26.5));
#355=CARTESIAN_POINT('Origin',(0.,0.,25.5));
#356=CARTESIAN_POINT('Origin',(0.,0.,0.));
#357=CARTESIAN_POINT('',(64.,-7.83773951454306E-15,2.));
#358=CARTESIAN_POINT('',(64.,7.83773951454306E-15,0.));
#359=CARTESIAN_POINT('Origin',(0.,0.,2.));
#360=CARTESIAN_POINT('Origin',(-6.20426008267104E-15,-9.25185853854297E-16,
27.5));
#361=CARTESIAN_POINT('',(-8.25,-1.01033360929657E-15,27.5));
#362=CARTESIAN_POINT('Origin',(0.,0.,27.5));
#363=CARTESIAN_POINT('Origin',(0.,0.,1.));
#364=CARTESIAN_POINT('',(-8.25,1.01033360929657E-15,0.));
#365=CARTESIAN_POINT('Origin',(0.,0.,0.));
#366=CARTESIAN_POINT('',(-6.25,-7.65404249467096E-16,2.));
#367=CARTESIAN_POINT('',(-7.25,8.87868929381831E-16,1.));
#368=CARTESIAN_POINT('Origin',(0.,0.,2.));
#369=CARTESIAN_POINT('Origin',(-6.20426008267104E-15,-9.25185853854297E-16,
0.));
#370=CARTESIAN_POINT('',(62.,7.59281015471359E-15,0.));
#371=CARTESIAN_POINT('Origin',(0.,0.,0.));
#372=CARTESIAN_POINT('',(-19.952654477249,39.1891952754173,0.));
#373=CARTESIAN_POINT('Origin',(-31.452654477249,39.1891952754173,0.));
#374=CARTESIAN_POINT('',(42.952654477249,39.1891952754173,0.));
#375=CARTESIAN_POINT('Origin',(31.452654477249,39.1891952754173,0.));
#376=CARTESIAN_POINT('',(42.952654477249,-39.1891952754173,0.));
#377=CARTESIAN_POINT('Origin',(31.452654477249,-39.1891952754173,0.));
#378=CARTESIAN_POINT('',(-19.952654477249,-39.1891952754173,0.));
#379=CARTESIAN_POINT('Origin',(-31.452654477249,-39.1891952754173,0.));
#380=CARTESIAN_POINT('Origin',(0.,0.,0.));
#381=CARTESIAN_POINT('',(-6.25,7.65404249467096E-16,25.5));
#382=CARTESIAN_POINT('',(-6.25,-7.65404249467096E-16,0.));
#383=CARTESIAN_POINT('Origin',(0.,0.,25.5));
#384=CARTESIAN_POINT('Origin',(0.,0.,1.));
#385=CARTESIAN_POINT('',(63.,-7.71527483462833E-15,1.));
#386=CARTESIAN_POINT('Origin',(0.,0.,26.5));
#387=CARTESIAN_POINT('',(-7.25,-8.87868929381831E-16,26.5));
#388=CARTESIAN_POINT('Origin',(-6.20426008267104E-15,-9.25185853854297E-16,
12.5));
#389=CARTESIAN_POINT('',(-19.952654477249,-39.1891952754173,12.5));
#390=CARTESIAN_POINT('Origin',(-31.452654477249,-39.1891952754173,12.5));
#391=CARTESIAN_POINT('Origin',(-6.20426008267104E-15,-9.25185853854297E-16,
12.5));
#392=CARTESIAN_POINT('',(42.952654477249,-39.1891952754173,12.5));
#393=CARTESIAN_POINT('Origin',(31.452654477249,-39.1891952754173,12.5));
#394=CARTESIAN_POINT('Origin',(-6.20426008267104E-15,-9.25185853854297E-16,
12.5));
#395=CARTESIAN_POINT('',(42.952654477249,39.1891952754173,12.5));
#396=CARTESIAN_POINT('Origin',(31.452654477249,39.1891952754173,12.5));
#397=CARTESIAN_POINT('Origin',(-6.20426008267104E-15,-9.25185853854297E-16,
12.5));
#398=CARTESIAN_POINT('',(-19.952654477249,39.1891952754173,12.5));
#399=CARTESIAN_POINT('Origin',(-31.452654477249,39.1891952754173,12.5));
#400=CARTESIAN_POINT('Origin',(-31.452654477249,39.1891952754173,0.));
#401=CARTESIAN_POINT('',(-19.952654477249,39.1891952754173,0.));
#402=CARTESIAN_POINT('Origin',(31.452654477249,39.1891952754173,0.));
#403=CARTESIAN_POINT('',(42.952654477249,39.1891952754173,0.));
#404=CARTESIAN_POINT('Origin',(31.452654477249,-39.1891952754173,0.));
#405=CARTESIAN_POINT('',(42.952654477249,-39.1891952754173,0.));
#406=CARTESIAN_POINT('Origin',(-31.452654477249,-39.1891952754173,0.));
#407=CARTESIAN_POINT('',(-19.952654477249,-39.1891952754173,0.));
#408=UNCERTAINTY_MEASURE_WITH_UNIT(LENGTH_MEASURE(0.01),#412,
'DISTANCE_ACCURACY_VALUE',
'Maximum model space distance between geometric entities at asserted c
onnectivities');
#409=UNCERTAINTY_MEASURE_WITH_UNIT(LENGTH_MEASURE(0.01),#412,
'DISTANCE_ACCURACY_VALUE',
'Maximum model space distance between geometric entities at asserted c
onnectivities');
#410=(
GEOMETRIC_REPRESENTATION_CONTEXT(3)
GLOBAL_UNCERTAINTY_ASSIGNED_CONTEXT((#408))
GLOBAL_UNIT_ASSIGNED_CONTEXT((#412,#415,#414))
REPRESENTATION_CONTEXT('','3D')
);
#411=(
GEOMETRIC_REPRESENTATION_CONTEXT(3)
GLOBAL_UNCERTAINTY_ASSIGNED_CONTEXT((#409))
GLOBAL_UNIT_ASSIGNED_CONTEXT((#412,#415,#414))
REPRESENTATION_CONTEXT('','3D')
);
#412=(
LENGTH_UNIT()
NAMED_UNIT(*)
SI_UNIT(.MILLI.,.METRE.)
);
#413=(
LENGTH_UNIT()
NAMED_UNIT(*)
SI_UNIT(.CENTI.,.METRE.)
);
#414=(
NAMED_UNIT(*)
SI_UNIT($,.STERADIAN.)
SOLID_ANGLE_UNIT()
);
#415=(
NAMED_UNIT(*)
PLANE_ANGLE_UNIT()
SI_UNIT($,.RADIAN.)
);
#416=SHAPE_DEFINITION_REPRESENTATION(#417,#418);
#417=PRODUCT_DEFINITION_SHAPE('',$,#420);
#418=SHAPE_REPRESENTATION('',(#240),#410);
#419=PRODUCT_DEFINITION_CONTEXT('part definition',#424,'design');
#420=PRODUCT_DEFINITION('platine','platine',#421,#419);
#421=PRODUCT_DEFINITION_FORMATION('',$,#426);
#422=PRODUCT_RELATED_PRODUCT_CATEGORY('platine','platine',(#426));
#423=APPLICATION_PROTOCOL_DEFINITION('international standard',
'automotive_design',2009,#424);
#424=APPLICATION_CONTEXT(
'Core Data for Automotive Mechanical Design Process');
#425=PRODUCT_CONTEXT('part definition',#424,'mechanical');
#426=PRODUCT('platine','platine',$,(#425));
#427=PRESENTATION_STYLE_ASSIGNMENT((#429));
#428=PRESENTATION_STYLE_ASSIGNMENT((#430));
#429=SURFACE_STYLE_USAGE(.BOTH.,#431);
#430=SURFACE_STYLE_USAGE(.BOTH.,#432);
#431=SURFACE_SIDE_STYLE('',(#433));
#432=SURFACE_SIDE_STYLE('',(#434));
#433=SURFACE_STYLE_FILL_AREA(#435);
#434=SURFACE_STYLE_FILL_AREA(#436);
#435=FILL_AREA_STYLE('',(#437));
#436=FILL_AREA_STYLE('',(#438));
#437=FILL_AREA_STYLE_COLOUR('',#439);
#438=FILL_AREA_STYLE_COLOUR('',#440);
#439=COLOUR_RGB('',0.749019607843137,0.749019607843137,0.749019607843137);
#440=COLOUR_RGB('',0.87843137254902,0.874509803921569,0.858823529411765);
ENDSEC;
END-ISO-10303-21;
