ISO-10303-21;
HEADER;
FILE_DESCRIPTION(('FreeCAD Model'),'2;1');
FILE_NAME('Open CASCADE Shape Model','2024-06-17T18:21:52',(''),(''),
  'Open CASCADE STEP processor 7.6','FreeCAD','Unknown');
FILE_SCHEMA(('AUTOMOTIVE_DESIGN { 1 0 10303 214 1 1 1 1 }'));
ENDSEC;
DATA;
#1 = APPLICATION_PROTOCOL_DEFINITION('international standard',
  'automotive_design',2000,#2);
#2 = APPLICATION_CONTEXT(
  'core data for automotive mechanical design processes');
#3 = SHAPE_DEFINITION_REPRESENTATION(#4,#10);
#4 = PRODUCT_DEFINITION_SHAPE('','',#5);
#5 = PRODUCT_DEFINITION('design','',#6,#9);
#6 = PRODUCT_DEFINITION_FORMATION('','',#7);
#7 = PRODUCT('Clamping block','Clamping block','',(#8));
#8 = PRODUCT_CONTEXT('',#2,'mechanical');
#9 = PRODUCT_DEFINITION_CONTEXT('part definition',#2,'design');
#10 = ADVANCED_BREP_SHAPE_REPRESENTATION('',(#11,#15),#340);
#11 = AXIS2_PLACEMENT_3D('',#12,#13,#14);
#12 = CARTESIAN_POINT('',(0.,0.,0.));
#13 = DIRECTION('',(0.,0.,1.));
#14 = DIRECTION('',(1.,0.,-0.));
#15 = MANIFOLD_SOLID_BREP('',#16);
#16 = CLOSED_SHELL('',(#17,#59,#101,#132,#182,#232,#249,#274,#291,#311,
    #328));
#17 = ADVANCED_FACE('',(#18),#54,.F.);
#18 = FACE_BOUND('',#19,.T.);
#19 = EDGE_LOOP('',(#20,#30,#39,#47));
#20 = ORIENTED_EDGE('',*,*,#21,.T.);
#21 = EDGE_CURVE('',#22,#24,#26,.T.);
#22 = VERTEX_POINT('',#23);
#23 = CARTESIAN_POINT('',(-18.5,4.E-15,7.5));
#24 = VERTEX_POINT('',#25);
#25 = CARTESIAN_POINT('',(-18.5,-25.,7.5));
#26 = LINE('',#27,#28);
#27 = CARTESIAN_POINT('',(-18.5,5.E-15,7.5));
#28 = VECTOR('',#29,1.);
#29 = DIRECTION('',(0.,-1.,6.6E-16));
#30 = ORIENTED_EDGE('',*,*,#31,.T.);
#31 = EDGE_CURVE('',#24,#32,#34,.T.);
#32 = VERTEX_POINT('',#33);
#33 = CARTESIAN_POINT('',(-25.5,-25.,7.5));
#34 = CIRCLE('',#35,3.5);
#35 = AXIS2_PLACEMENT_3D('',#36,#37,#38);
#36 = CARTESIAN_POINT('',(-22.,-25.,7.5));
#37 = DIRECTION('',(0.,-1.,2.2E-16));
#38 = DIRECTION('',(1.,0.,0.));
#39 = ORIENTED_EDGE('',*,*,#40,.F.);
#40 = EDGE_CURVE('',#41,#32,#43,.T.);
#41 = VERTEX_POINT('',#42);
#42 = CARTESIAN_POINT('',(-25.5,4.E-15,7.5));
#43 = LINE('',#44,#45);
#44 = CARTESIAN_POINT('',(-25.5,5.E-15,7.5));
#45 = VECTOR('',#46,1.);
#46 = DIRECTION('',(0.,-1.,6.6E-16));
#47 = ORIENTED_EDGE('',*,*,#48,.F.);
#48 = EDGE_CURVE('',#22,#41,#49,.T.);
#49 = CIRCLE('',#50,3.5);
#50 = AXIS2_PLACEMENT_3D('',#51,#52,#53);
#51 = CARTESIAN_POINT('',(-22.,1.67E-15,7.5));
#52 = DIRECTION('',(0.,-1.,2.2E-16));
#53 = DIRECTION('',(1.,0.,0.));
#54 = CYLINDRICAL_SURFACE('',#55,3.5);
#55 = AXIS2_PLACEMENT_3D('',#56,#57,#58);
#56 = CARTESIAN_POINT('',(-22.,5.E-15,7.5));
#57 = DIRECTION('',(0.,1.,-6.6E-16));
#58 = DIRECTION('',(1.,0.,0.));
#59 = ADVANCED_FACE('',(#60,#85),#96,.F.);
#60 = FACE_BOUND('',#61,.F.);
#61 = EDGE_LOOP('',(#62,#63,#71,#79));
#62 = ORIENTED_EDGE('',*,*,#21,.T.);
#63 = ORIENTED_EDGE('',*,*,#64,.T.);
#64 = EDGE_CURVE('',#24,#65,#67,.T.);
#65 = VERTEX_POINT('',#66);
#66 = CARTESIAN_POINT('',(18.5,-25.,7.5));
#67 = LINE('',#68,#69);
#68 = CARTESIAN_POINT('',(-18.5,-25.,7.5));
#69 = VECTOR('',#70,1.);
#70 = DIRECTION('',(1.,0.,-2.E-17));
#71 = ORIENTED_EDGE('',*,*,#72,.F.);
#72 = EDGE_CURVE('',#73,#65,#75,.T.);
#73 = VERTEX_POINT('',#74);
#74 = CARTESIAN_POINT('',(18.5,4.E-15,7.5));
#75 = LINE('',#76,#77);
#76 = CARTESIAN_POINT('',(18.5,5.E-15,7.5));
#77 = VECTOR('',#78,1.);
#78 = DIRECTION('',(0.,-1.,6.6E-16));
#79 = ORIENTED_EDGE('',*,*,#80,.F.);
#80 = EDGE_CURVE('',#22,#73,#81,.T.);
#81 = LINE('',#82,#83);
#82 = CARTESIAN_POINT('',(-18.5,1.67E-15,7.5));
#83 = VECTOR('',#84,1.);
#84 = DIRECTION('',(1.,0.,-2.E-17));
#85 = FACE_BOUND('',#86,.F.);
#86 = EDGE_LOOP('',(#87));
#87 = ORIENTED_EDGE('',*,*,#88,.F.);
#88 = EDGE_CURVE('',#89,#89,#91,.T.);
#89 = VERTEX_POINT('',#90);
#90 = CARTESIAN_POINT('',(-3.3,-12.5,7.5));
#91 = CIRCLE('',#92,3.3);
#92 = AXIS2_PLACEMENT_3D('',#93,#94,#95);
#93 = CARTESIAN_POINT('',(0.,-12.5,7.5));
#94 = DIRECTION('',(0.,1.1E-16,1.));
#95 = DIRECTION('',(-1.,0.,0.));
#96 = PLANE('',#97);
#97 = AXIS2_PLACEMENT_3D('',#98,#99,#100);
#98 = CARTESIAN_POINT('',(-18.5,5.E-15,7.5));
#99 = DIRECTION('',(2.E-17,6.6E-16,1.));
#100 = DIRECTION('',(1.,0.,-2.E-17));
#101 = ADVANCED_FACE('',(#102),#127,.F.);
#102 = FACE_BOUND('',#103,.F.);
#103 = EDGE_LOOP('',(#104,#114,#120,#121));
#104 = ORIENTED_EDGE('',*,*,#105,.T.);
#105 = EDGE_CURVE('',#106,#108,#110,.T.);
#106 = VERTEX_POINT('',#107);
#107 = CARTESIAN_POINT('',(-30.,4.E-15,7.5));
#108 = VERTEX_POINT('',#109);
#109 = CARTESIAN_POINT('',(-30.,-25.,7.5));
#110 = LINE('',#111,#112);
#111 = CARTESIAN_POINT('',(-30.,5.E-15,7.5));
#112 = VECTOR('',#113,1.);
#113 = DIRECTION('',(0.,-1.,6.6E-16));
#114 = ORIENTED_EDGE('',*,*,#115,.T.);
#115 = EDGE_CURVE('',#108,#32,#116,.T.);
#116 = LINE('',#117,#118);
#117 = CARTESIAN_POINT('',(-30.,-25.,7.5));
#118 = VECTOR('',#119,1.);
#119 = DIRECTION('',(1.,0.,0.));
#120 = ORIENTED_EDGE('',*,*,#40,.F.);
#121 = ORIENTED_EDGE('',*,*,#122,.F.);
#122 = EDGE_CURVE('',#106,#41,#123,.T.);
#123 = LINE('',#124,#125);
#124 = CARTESIAN_POINT('',(-30.,1.67E-15,7.5));
#125 = VECTOR('',#126,1.);
#126 = DIRECTION('',(1.,0.,0.));
#127 = PLANE('',#128);
#128 = AXIS2_PLACEMENT_3D('',#129,#130,#131);
#129 = CARTESIAN_POINT('',(-30.,5.E-15,7.5));
#130 = DIRECTION('',(0.,6.6E-16,1.));
#131 = DIRECTION('',(1.,0.,0.));
#132 = ADVANCED_FACE('',(#133),#177,.T.);
#133 = FACE_BOUND('',#134,.T.);
#134 = EDGE_LOOP('',(#135,#136,#137,#145,#153,#161,#169,#176));
#135 = ORIENTED_EDGE('',*,*,#48,.T.);
#136 = ORIENTED_EDGE('',*,*,#122,.F.);
#137 = ORIENTED_EDGE('',*,*,#138,.F.);
#138 = EDGE_CURVE('',#139,#106,#141,.T.);
#139 = VERTEX_POINT('',#140);
#140 = CARTESIAN_POINT('',(-30.,8.E-15,15.));
#141 = LINE('',#142,#143);
#142 = CARTESIAN_POINT('',(-30.,3.33E-15,15.));
#143 = VECTOR('',#144,1.);
#144 = DIRECTION('',(0.,-2.2E-16,-1.));
#145 = ORIENTED_EDGE('',*,*,#146,.T.);
#146 = EDGE_CURVE('',#139,#147,#149,.T.);
#147 = VERTEX_POINT('',#148);
#148 = CARTESIAN_POINT('',(30.,8.E-15,15.));
#149 = LINE('',#150,#151);
#150 = CARTESIAN_POINT('',(-30.,3.33E-15,15.));
#151 = VECTOR('',#152,1.);
#152 = DIRECTION('',(1.,0.,0.));
#153 = ORIENTED_EDGE('',*,*,#154,.T.);
#154 = EDGE_CURVE('',#147,#155,#157,.T.);
#155 = VERTEX_POINT('',#156);
#156 = CARTESIAN_POINT('',(30.,4.E-15,7.5));
#157 = LINE('',#158,#159);
#158 = CARTESIAN_POINT('',(30.,3.33E-15,15.));
#159 = VECTOR('',#160,1.);
#160 = DIRECTION('',(0.,-2.2E-16,-1.));
#161 = ORIENTED_EDGE('',*,*,#162,.T.);
#162 = EDGE_CURVE('',#155,#163,#165,.T.);
#163 = VERTEX_POINT('',#164);
#164 = CARTESIAN_POINT('',(25.5,4.E-15,7.5));
#165 = LINE('',#166,#167);
#166 = CARTESIAN_POINT('',(30.,1.67E-15,7.5));
#167 = VECTOR('',#168,1.);
#168 = DIRECTION('',(-1.,0.,0.));
#169 = ORIENTED_EDGE('',*,*,#170,.T.);
#170 = EDGE_CURVE('',#163,#73,#171,.T.);
#171 = CIRCLE('',#172,3.5);
#172 = AXIS2_PLACEMENT_3D('',#173,#174,#175);
#173 = CARTESIAN_POINT('',(22.,1.67E-15,7.5));
#174 = DIRECTION('',(0.,-1.,2.2E-16));
#175 = DIRECTION('',(1.,0.,0.));
#176 = ORIENTED_EDGE('',*,*,#80,.F.);
#177 = PLANE('',#178);
#178 = AXIS2_PLACEMENT_3D('',#179,#180,#181);
#179 = CARTESIAN_POINT('',(0.,5.04E-15,11.363980597081));
#180 = DIRECTION('',(0.,1.,-4.4E-16));
#181 = DIRECTION('',(0.,4.4E-16,1.));
#182 = ADVANCED_FACE('',(#183),#227,.F.);
#183 = FACE_BOUND('',#184,.F.);
#184 = EDGE_LOOP('',(#185,#186,#187,#195,#203,#211,#219,#226));
#185 = ORIENTED_EDGE('',*,*,#31,.T.);
#186 = ORIENTED_EDGE('',*,*,#115,.F.);
#187 = ORIENTED_EDGE('',*,*,#188,.F.);
#188 = EDGE_CURVE('',#189,#108,#191,.T.);
#189 = VERTEX_POINT('',#190);
#190 = CARTESIAN_POINT('',(-30.,-25.,15.));
#191 = LINE('',#192,#193);
#192 = CARTESIAN_POINT('',(-30.,-25.,15.));
#193 = VECTOR('',#194,1.);
#194 = DIRECTION('',(0.,-2.2E-16,-1.));
#195 = ORIENTED_EDGE('',*,*,#196,.T.);
#196 = EDGE_CURVE('',#189,#197,#199,.T.);
#197 = VERTEX_POINT('',#198);
#198 = CARTESIAN_POINT('',(30.,-25.,15.));
#199 = LINE('',#200,#201);
#200 = CARTESIAN_POINT('',(-30.,-25.,15.));
#201 = VECTOR('',#202,1.);
#202 = DIRECTION('',(1.,0.,0.));
#203 = ORIENTED_EDGE('',*,*,#204,.T.);
#204 = EDGE_CURVE('',#197,#205,#207,.T.);
#205 = VERTEX_POINT('',#206);
#206 = CARTESIAN_POINT('',(30.,-25.,7.5));
#207 = LINE('',#208,#209);
#208 = CARTESIAN_POINT('',(30.,-25.,15.));
#209 = VECTOR('',#210,1.);
#210 = DIRECTION('',(0.,-2.2E-16,-1.));
#211 = ORIENTED_EDGE('',*,*,#212,.T.);
#212 = EDGE_CURVE('',#205,#213,#215,.T.);
#213 = VERTEX_POINT('',#214);
#214 = CARTESIAN_POINT('',(25.5,-25.,7.5));
#215 = LINE('',#216,#217);
#216 = CARTESIAN_POINT('',(30.,-25.,7.5));
#217 = VECTOR('',#218,1.);
#218 = DIRECTION('',(-1.,0.,0.));
#219 = ORIENTED_EDGE('',*,*,#220,.T.);
#220 = EDGE_CURVE('',#213,#65,#221,.T.);
#221 = CIRCLE('',#222,3.5);
#222 = AXIS2_PLACEMENT_3D('',#223,#224,#225);
#223 = CARTESIAN_POINT('',(22.,-25.,7.5));
#224 = DIRECTION('',(0.,-1.,2.2E-16));
#225 = DIRECTION('',(1.,0.,0.));
#226 = ORIENTED_EDGE('',*,*,#64,.F.);
#227 = PLANE('',#228);
#228 = AXIS2_PLACEMENT_3D('',#229,#230,#231);
#229 = CARTESIAN_POINT('',(0.,-25.,11.363980597081));
#230 = DIRECTION('',(0.,1.,-4.4E-16));
#231 = DIRECTION('',(0.,4.4E-16,1.));
#232 = ADVANCED_FACE('',(#233),#244,.F.);
#233 = FACE_BOUND('',#234,.T.);
#234 = EDGE_LOOP('',(#235,#241,#242,#243));
#235 = ORIENTED_EDGE('',*,*,#236,.T.);
#236 = EDGE_CURVE('',#163,#213,#237,.T.);
#237 = LINE('',#238,#239);
#238 = CARTESIAN_POINT('',(25.5,5.E-15,7.5));
#239 = VECTOR('',#240,1.);
#240 = DIRECTION('',(0.,-1.,6.6E-16));
#241 = ORIENTED_EDGE('',*,*,#220,.T.);
#242 = ORIENTED_EDGE('',*,*,#72,.F.);
#243 = ORIENTED_EDGE('',*,*,#170,.F.);
#244 = CYLINDRICAL_SURFACE('',#245,3.5);
#245 = AXIS2_PLACEMENT_3D('',#246,#247,#248);
#246 = CARTESIAN_POINT('',(22.,5.E-15,7.5));
#247 = DIRECTION('',(0.,1.,-6.6E-16));
#248 = DIRECTION('',(1.,0.,0.));
#249 = ADVANCED_FACE('',(#250),#269,.F.);
#250 = FACE_BOUND('',#251,.T.);
#251 = EDGE_LOOP('',(#252,#253,#261,#268));
#252 = ORIENTED_EDGE('',*,*,#88,.F.);
#253 = ORIENTED_EDGE('',*,*,#254,.T.);
#254 = EDGE_CURVE('',#89,#255,#257,.T.);
#255 = VERTEX_POINT('',#256);
#256 = CARTESIAN_POINT('',(-3.3,-12.5,15.));
#257 = LINE('',#258,#259);
#258 = CARTESIAN_POINT('',(-3.3,-12.5,1.7763568394E-15));
#259 = VECTOR('',#260,1.);
#260 = DIRECTION('',(6.E-17,1.1E-16,1.));
#261 = ORIENTED_EDGE('',*,*,#262,.T.);
#262 = EDGE_CURVE('',#255,#255,#263,.T.);
#263 = CIRCLE('',#264,3.3);
#264 = AXIS2_PLACEMENT_3D('',#265,#266,#267);
#265 = CARTESIAN_POINT('',(0.,-12.5,15.));
#266 = DIRECTION('',(0.,1.1E-16,1.));
#267 = DIRECTION('',(-1.,0.,0.));
#268 = ORIENTED_EDGE('',*,*,#254,.F.);
#269 = CYLINDRICAL_SURFACE('',#270,3.3);
#270 = AXIS2_PLACEMENT_3D('',#271,#272,#273);
#271 = CARTESIAN_POINT('',(0.,-12.5,1.7763568394E-15));
#272 = DIRECTION('',(0.,1.1E-16,1.));
#273 = DIRECTION('',(-1.,0.,0.));
#274 = ADVANCED_FACE('',(#275),#286,.F.);
#275 = FACE_BOUND('',#276,.F.);
#276 = EDGE_LOOP('',(#277,#283,#284,#285));
#277 = ORIENTED_EDGE('',*,*,#278,.T.);
#278 = EDGE_CURVE('',#139,#189,#279,.T.);
#279 = LINE('',#280,#281);
#280 = CARTESIAN_POINT('',(-30.,9.99E-15,15.));
#281 = VECTOR('',#282,1.);
#282 = DIRECTION('',(0.,-1.,6.6E-16));
#283 = ORIENTED_EDGE('',*,*,#188,.T.);
#284 = ORIENTED_EDGE('',*,*,#105,.F.);
#285 = ORIENTED_EDGE('',*,*,#138,.F.);
#286 = PLANE('',#287);
#287 = AXIS2_PLACEMENT_3D('',#288,#289,#290);
#288 = CARTESIAN_POINT('',(-30.,9.99E-15,15.));
#289 = DIRECTION('',(1.,0.,0.));
#290 = DIRECTION('',(0.,-6.6E-16,-1.));
#291 = ADVANCED_FACE('',(#292,#303),#306,.T.);
#292 = FACE_BOUND('',#293,.T.);
#293 = EDGE_LOOP('',(#294,#295,#296,#302));
#294 = ORIENTED_EDGE('',*,*,#278,.T.);
#295 = ORIENTED_EDGE('',*,*,#196,.T.);
#296 = ORIENTED_EDGE('',*,*,#297,.F.);
#297 = EDGE_CURVE('',#147,#197,#298,.T.);
#298 = LINE('',#299,#300);
#299 = CARTESIAN_POINT('',(30.,9.99E-15,15.));
#300 = VECTOR('',#301,1.);
#301 = DIRECTION('',(0.,-1.,6.6E-16));
#302 = ORIENTED_EDGE('',*,*,#146,.F.);
#303 = FACE_BOUND('',#304,.T.);
#304 = EDGE_LOOP('',(#305));
#305 = ORIENTED_EDGE('',*,*,#262,.F.);
#306 = PLANE('',#307);
#307 = AXIS2_PLACEMENT_3D('',#308,#309,#310);
#308 = CARTESIAN_POINT('',(-30.,9.99E-15,15.));
#309 = DIRECTION('',(0.,6.6E-16,1.));
#310 = DIRECTION('',(1.,0.,0.));
#311 = ADVANCED_FACE('',(#312),#323,.T.);
#312 = FACE_BOUND('',#313,.T.);
#313 = EDGE_LOOP('',(#314,#315,#316,#322));
#314 = ORIENTED_EDGE('',*,*,#297,.T.);
#315 = ORIENTED_EDGE('',*,*,#204,.T.);
#316 = ORIENTED_EDGE('',*,*,#317,.F.);
#317 = EDGE_CURVE('',#155,#205,#318,.T.);
#318 = LINE('',#319,#320);
#319 = CARTESIAN_POINT('',(30.,5.E-15,7.5));
#320 = VECTOR('',#321,1.);
#321 = DIRECTION('',(0.,-1.,6.6E-16));
#322 = ORIENTED_EDGE('',*,*,#154,.F.);
#323 = PLANE('',#324);
#324 = AXIS2_PLACEMENT_3D('',#325,#326,#327);
#325 = CARTESIAN_POINT('',(30.,9.99E-15,15.));
#326 = DIRECTION('',(1.,0.,0.));
#327 = DIRECTION('',(0.,-6.6E-16,-1.));
#328 = ADVANCED_FACE('',(#329),#335,.T.);
#329 = FACE_BOUND('',#330,.T.);
#330 = EDGE_LOOP('',(#331,#332,#333,#334));
#331 = ORIENTED_EDGE('',*,*,#317,.T.);
#332 = ORIENTED_EDGE('',*,*,#212,.T.);
#333 = ORIENTED_EDGE('',*,*,#236,.F.);
#334 = ORIENTED_EDGE('',*,*,#162,.F.);
#335 = PLANE('',#336);
#336 = AXIS2_PLACEMENT_3D('',#337,#338,#339);
#337 = CARTESIAN_POINT('',(30.,5.E-15,7.5));
#338 = DIRECTION('',(0.,-6.6E-16,-1.));
#339 = DIRECTION('',(-1.,0.,0.));
#340 = ( GEOMETRIC_REPRESENTATION_CONTEXT(3) 
GLOBAL_UNCERTAINTY_ASSIGNED_CONTEXT((#344)) GLOBAL_UNIT_ASSIGNED_CONTEXT
((#341,#342,#343)) REPRESENTATION_CONTEXT('Context #1',
  '3D Context with UNIT and UNCERTAINTY') );
#341 = ( LENGTH_UNIT() NAMED_UNIT(*) SI_UNIT(.MILLI.,.METRE.) );
#342 = ( NAMED_UNIT(*) PLANE_ANGLE_UNIT() SI_UNIT($,.RADIAN.) );
#343 = ( NAMED_UNIT(*) SI_UNIT($,.STERADIAN.) SOLID_ANGLE_UNIT() );
#344 = UNCERTAINTY_MEASURE_WITH_UNIT(LENGTH_MEASURE(1.E-07),#341,
  'distance_accuracy_value','confusion accuracy');
#345 = PRODUCT_RELATED_PRODUCT_CATEGORY('part',$,(#7));
#346 = MECHANICAL_DESIGN_GEOMETRIC_PRESENTATION_REPRESENTATION('',(#347)
  ,#340);
#347 = STYLED_ITEM('color',(#348),#15);
#348 = PRESENTATION_STYLE_ASSIGNMENT((#349,#355));
#349 = SURFACE_STYLE_USAGE(.BOTH.,#350);
#350 = SURFACE_SIDE_STYLE('',(#351));
#351 = SURFACE_STYLE_FILL_AREA(#352);
#352 = FILL_AREA_STYLE('',(#353));
#353 = FILL_AREA_STYLE_COLOUR('',#354);
#354 = COLOUR_RGB('',0.800000010877,0.800000010877,0.800000010877);
#355 = CURVE_STYLE('',#356,POSITIVE_LENGTH_MEASURE(0.1),#357);
#356 = DRAUGHTING_PRE_DEFINED_CURVE_FONT('continuous');
#357 = COLOUR_RGB('',9.803921802644E-02,9.803921802644E-02,
  9.803921802644E-02);
ENDSEC;
END-ISO-10303-21;
