ISO-10303-21;
HEADER;
/* Generated by software containing ST-Developer
 * from STEP Tools, Inc. (www.steptools.com) 
 */

FILE_DESCRIPTION(
/* description */ (''),
/* implementation_level */ '2;1');

FILE_NAME(
/* name */ 'CALE RESSORT DE FOURCHE v2.step',
/* time_stamp */ '2024-06-20T22:42:23+02:00',
/* author */ (''),
/* organization */ (''),
/* preprocessor_version */ 'ST-DEVELOPER v20',
/* originating_system */ 'Autodesk Translation Framework v12.20.1.177',

/* authorisation */ '');

FILE_SCHEMA (('AUTOMOTIVE_DESIGN { 1 0 10303 214 3 1 1 }'));
ENDSEC;

DATA;
#10=MECHANICAL_DESIGN_GEOMETRIC_PRESENTATION_REPRESENTATION('',(#13),#471);
#11=SHAPE_REPRESENTATION_RELATIONSHIP('SRR','None',#478,#12);
#12=ADVANCED_BREP_SHAPE_REPRESENTATION('',(#14),#470);
#13=STYLED_ITEM('',(#487),#14);
#14=MANIFOLD_SOLID_BREP('Corps1',#197);
#15=FACE_BOUND('',#47,.T.);
#16=FACE_BOUND('',#50,.T.);
#17=FACE_BOUND('',#52,.T.);
#18=FACE_BOUND('',#54,.T.);
#19=FACE_BOUND('',#56,.T.);
#20=FACE_BOUND('',#58,.T.);
#21=PLANE('',#216);
#22=PLANE('',#221);
#23=PLANE('',#227);
#24=PLANE('',#228);
#25=CIRCLE('',#214,11.75);
#26=CIRCLE('',#215,11.75);
#27=CIRCLE('',#217,10.5);
#28=CIRCLE('',#219,11.85);
#29=CIRCLE('',#220,11.85);
#30=CIRCLE('',#222,14.8);
#31=CIRCLE('',#224,10.5);
#32=CIRCLE('',#226,14.8);
#33=FACE_OUTER_BOUND('',#43,.T.);
#34=FACE_OUTER_BOUND('',#44,.T.);
#35=FACE_OUTER_BOUND('',#45,.T.);
#36=FACE_OUTER_BOUND('',#46,.T.);
#37=FACE_OUTER_BOUND('',#48,.T.);
#38=FACE_OUTER_BOUND('',#49,.T.);
#39=FACE_OUTER_BOUND('',#51,.T.);
#40=FACE_OUTER_BOUND('',#53,.T.);
#41=FACE_OUTER_BOUND('',#55,.T.);
#42=FACE_OUTER_BOUND('',#57,.T.);
#43=EDGE_LOOP('',(#129,#130,#131,#132,#133,#134,#135,#136));
#44=EDGE_LOOP('',(#137,#138,#139,#140,#141,#142));
#45=EDGE_LOOP('',(#143,#144,#145,#146));
#46=EDGE_LOOP('',(#147));
#47=EDGE_LOOP('',(#148));
#48=EDGE_LOOP('',(#149,#150,#151,#152));
#49=EDGE_LOOP('',(#153));
#50=EDGE_LOOP('',(#154));
#51=EDGE_LOOP('',(#155,#156,#157,#158,#159,#160,#161,#162,#163));
#52=EDGE_LOOP('',(#164,#165));
#53=EDGE_LOOP('',(#166,#167,#168,#169,#170,#171,#172,#173,#174));
#54=EDGE_LOOP('',(#175,#176));
#55=EDGE_LOOP('',(#177));
#56=EDGE_LOOP('',(#178));
#57=EDGE_LOOP('',(#179));
#58=EDGE_LOOP('',(#180));
#59=LINE('',#290,#67);
#60=LINE('',#400,#68);
#61=LINE('',#442,#69);
#62=LINE('',#451,#70);
#63=LINE('',#457,#71);
#64=LINE('',#459,#72);
#65=LINE('',#464,#73);
#66=LINE('',#465,#74);
#67=VECTOR('',#233,4.);
#68=VECTOR('',#236,4.);
#69=VECTOR('',#241,11.75);
#70=VECTOR('',#252,11.85);
#71=VECTOR('',#261,10.5);
#72=VECTOR('',#262,10.5);
#73=VECTOR('',#269,14.8);
#74=VECTOR('',#270,14.8);
#75=B_SPLINE_CURVE_WITH_KNOTS('',3,(#279,#280,#281,#282,#283,#284,#285,
#286,#287,#288),.UNSPECIFIED.,.F.,.F.,(4,2,2,2,4),(0.,0.152420446508471,
0.304840893016942,0.457136448336289,0.609432003655637),.UNSPECIFIED.);
#76=B_SPLINE_CURVE_WITH_KNOTS('',3,(#292,#293,#294,#295,#296,#297,#298,
#299,#300,#301),.UNSPECIFIED.,.F.,.F.,(4,2,2,2,4),(1.81788228628712,1.96935785893319,
2.12083343157927,2.27233823998105,2.42384304838282),.UNSPECIFIED.);
#77=B_SPLINE_CURVE_WITH_KNOTS('',3,(#303,#304,#305,#306,#307,#308,#309,
#310,#311,#312,#313,#314,#315,#316,#317,#318,#319,#320),.UNSPECIFIED.,.F.,
 .F.,(4,2,2,2,2,2,2,2,4),(0.605960762095706,0.757436334741783,0.908911907387859,
1.06041671578964,1.21192152419141,1.36342633259319,1.51493114099496,1.66640671364104,
1.81788228628712),.UNSPECIFIED.);
#78=B_SPLINE_CURVE_WITH_KNOTS('',3,(#321,#322,#323,#324,#325,#326,#327,
#328,#329,#330),.UNSPECIFIED.,.F.,.F.,(4,2,2,2,4),(0.,0.151504808401776,
0.303009616803553,0.45448518944963,0.605960762095706),.UNSPECIFIED.);
#79=B_SPLINE_CURVE_WITH_KNOTS('',3,(#332,#333,#334,#335,#336,#337,#338,
#339,#340,#341),.UNSPECIFIED.,.F.,.F.,(4,2,2,2,4),(1.82829601096691,1.98059156628626,
2.13288712160561,2.28530756811408,2.43772801462255),.UNSPECIFIED.);
#80=B_SPLINE_CURVE_WITH_KNOTS('',3,(#342,#343,#344,#345,#346,#347,#348,
#349,#350,#351,#352,#353,#354,#355,#356,#357,#358,#359),.UNSPECIFIED.,.F.,
 .F.,(4,2,2,2,2,2,2,2,4),(0.609432003655637,0.761727558974984,0.914023114294332,
1.0664435608028,1.21886400731127,1.37128445381974,1.52370490032822,1.67600045564756,
1.82829601096691),.UNSPECIFIED.);
#81=B_SPLINE_CURVE_WITH_KNOTS('',3,(#363,#364,#365,#366,#367,#368,#369,
#370,#371,#372,#373,#374,#375,#376,#377,#378,#379,#380),.UNSPECIFIED.,.F.,
 .F.,(4,2,2,2,2,2,2,2,4),(0.,0.152420446508471,0.304840893016942,0.45713644833629,
0.609432003655637,0.761727558974985,0.914023114294332,1.0664435608028,1.21886400731127),
 .UNSPECIFIED.);
#82=B_SPLINE_CURVE_WITH_KNOTS('',3,(#381,#382,#383,#384,#385,#386,#387,
#388,#389,#390,#391,#392,#393,#394,#395,#396,#397,#398),.UNSPECIFIED.,.F.,
 .F.,(4,2,2,2,2,2,2,2,4),(1.21886400731127,1.37128445381975,1.52370490032822,
1.67600045564756,1.82829601096691,1.98059156628626,2.13288712160561,2.28530756811408,
2.43772801462255),.UNSPECIFIED.);
#83=B_SPLINE_CURVE_WITH_KNOTS('',3,(#402,#403,#404,#405,#406,#407,#408,
#409,#410,#411,#412,#413,#414,#415,#416,#417,#418,#419),.UNSPECIFIED.,.F.,
 .F.,(4,2,2,2,2,2,2,2,4),(0.,0.151504808401776,0.303009616803553,0.45448518944963,
0.605960762095706,0.757436334741783,0.908911907387859,1.06041671578964,
1.21192152419141),.UNSPECIFIED.);
#84=B_SPLINE_CURVE_WITH_KNOTS('',3,(#420,#421,#422,#423,#424,#425,#426,
#427,#428,#429,#430,#431,#432,#433,#434,#435,#436,#437),.UNSPECIFIED.,.F.,
 .F.,(4,2,2,2,2,2,2,2,4),(1.21192152419141,1.36342633259319,1.51493114099496,
1.66640671364104,1.81788228628712,1.96935785893319,2.12083343157927,2.27233823998105,
2.42384304838282),.UNSPECIFIED.);
#85=VERTEX_POINT('',#277);
#86=VERTEX_POINT('',#278);
#87=VERTEX_POINT('',#289);
#88=VERTEX_POINT('',#291);
#89=VERTEX_POINT('',#302);
#90=VERTEX_POINT('',#331);
#91=VERTEX_POINT('',#361);
#92=VERTEX_POINT('',#362);
#93=VERTEX_POINT('',#399);
#94=VERTEX_POINT('',#401);
#95=VERTEX_POINT('',#439);
#96=VERTEX_POINT('',#441);
#97=VERTEX_POINT('',#445);
#98=VERTEX_POINT('',#448);
#99=VERTEX_POINT('',#450);
#100=VERTEX_POINT('',#454);
#101=VERTEX_POINT('',#458);
#102=VERTEX_POINT('',#462);
#103=EDGE_CURVE('',#85,#86,#75,.T.);
#104=EDGE_CURVE('',#85,#87,#59,.T.);
#105=EDGE_CURVE('',#88,#87,#76,.T.);
#106=EDGE_CURVE('',#89,#88,#77,.T.);
#107=EDGE_CURVE('',#87,#89,#78,.T.);
#108=EDGE_CURVE('',#90,#85,#79,.T.);
#109=EDGE_CURVE('',#86,#90,#80,.T.);
#110=EDGE_CURVE('',#91,#92,#81,.T.);
#111=EDGE_CURVE('',#92,#91,#82,.T.);
#112=EDGE_CURVE('',#92,#93,#60,.T.);
#113=EDGE_CURVE('',#94,#93,#83,.T.);
#114=EDGE_CURVE('',#93,#94,#84,.T.);
#115=EDGE_CURVE('',#95,#95,#25,.T.);
#116=EDGE_CURVE('',#95,#96,#61,.T.);
#117=EDGE_CURVE('',#96,#96,#26,.T.);
#118=EDGE_CURVE('',#97,#97,#27,.T.);
#119=EDGE_CURVE('',#98,#98,#28,.T.);
#120=EDGE_CURVE('',#98,#99,#62,.T.);
#121=EDGE_CURVE('',#99,#99,#29,.T.);
#122=EDGE_CURVE('',#100,#100,#30,.T.);
#123=EDGE_CURVE('',#97,#86,#63,.T.);
#124=EDGE_CURVE('',#90,#101,#64,.T.);
#125=EDGE_CURVE('',#101,#101,#31,.T.);
#126=EDGE_CURVE('',#102,#102,#32,.T.);
#127=EDGE_CURVE('',#102,#88,#65,.T.);
#128=EDGE_CURVE('',#89,#100,#66,.T.);
#129=ORIENTED_EDGE('',*,*,#103,.F.);
#130=ORIENTED_EDGE('',*,*,#104,.T.);
#131=ORIENTED_EDGE('',*,*,#105,.F.);
#132=ORIENTED_EDGE('',*,*,#106,.F.);
#133=ORIENTED_EDGE('',*,*,#107,.F.);
#134=ORIENTED_EDGE('',*,*,#104,.F.);
#135=ORIENTED_EDGE('',*,*,#108,.F.);
#136=ORIENTED_EDGE('',*,*,#109,.F.);
#137=ORIENTED_EDGE('',*,*,#110,.F.);
#138=ORIENTED_EDGE('',*,*,#111,.F.);
#139=ORIENTED_EDGE('',*,*,#112,.T.);
#140=ORIENTED_EDGE('',*,*,#113,.F.);
#141=ORIENTED_EDGE('',*,*,#114,.F.);
#142=ORIENTED_EDGE('',*,*,#112,.F.);
#143=ORIENTED_EDGE('',*,*,#115,.F.);
#144=ORIENTED_EDGE('',*,*,#116,.T.);
#145=ORIENTED_EDGE('',*,*,#117,.T.);
#146=ORIENTED_EDGE('',*,*,#116,.F.);
#147=ORIENTED_EDGE('',*,*,#117,.F.);
#148=ORIENTED_EDGE('',*,*,#118,.F.);
#149=ORIENTED_EDGE('',*,*,#119,.F.);
#150=ORIENTED_EDGE('',*,*,#120,.T.);
#151=ORIENTED_EDGE('',*,*,#121,.T.);
#152=ORIENTED_EDGE('',*,*,#120,.F.);
#153=ORIENTED_EDGE('',*,*,#122,.F.);
#154=ORIENTED_EDGE('',*,*,#121,.F.);
#155=ORIENTED_EDGE('',*,*,#118,.T.);
#156=ORIENTED_EDGE('',*,*,#123,.T.);
#157=ORIENTED_EDGE('',*,*,#109,.T.);
#158=ORIENTED_EDGE('',*,*,#124,.T.);
#159=ORIENTED_EDGE('',*,*,#125,.T.);
#160=ORIENTED_EDGE('',*,*,#124,.F.);
#161=ORIENTED_EDGE('',*,*,#108,.T.);
#162=ORIENTED_EDGE('',*,*,#103,.T.);
#163=ORIENTED_EDGE('',*,*,#123,.F.);
#164=ORIENTED_EDGE('',*,*,#110,.T.);
#165=ORIENTED_EDGE('',*,*,#111,.T.);
#166=ORIENTED_EDGE('',*,*,#126,.F.);
#167=ORIENTED_EDGE('',*,*,#127,.T.);
#168=ORIENTED_EDGE('',*,*,#105,.T.);
#169=ORIENTED_EDGE('',*,*,#107,.T.);
#170=ORIENTED_EDGE('',*,*,#128,.T.);
#171=ORIENTED_EDGE('',*,*,#122,.T.);
#172=ORIENTED_EDGE('',*,*,#128,.F.);
#173=ORIENTED_EDGE('',*,*,#106,.T.);
#174=ORIENTED_EDGE('',*,*,#127,.F.);
#175=ORIENTED_EDGE('',*,*,#113,.T.);
#176=ORIENTED_EDGE('',*,*,#114,.T.);
#177=ORIENTED_EDGE('',*,*,#126,.T.);
#178=ORIENTED_EDGE('',*,*,#115,.T.);
#179=ORIENTED_EDGE('',*,*,#119,.T.);
#180=ORIENTED_EDGE('',*,*,#125,.F.);
#181=CYLINDRICAL_SURFACE('',#211,4.);
#182=CYLINDRICAL_SURFACE('',#212,4.);
#183=CYLINDRICAL_SURFACE('',#213,11.75);
#184=CYLINDRICAL_SURFACE('',#218,11.85);
#185=CYLINDRICAL_SURFACE('',#223,10.5);
#186=CYLINDRICAL_SURFACE('',#225,14.8);
#187=ADVANCED_FACE('',(#33),#181,.F.);
#188=ADVANCED_FACE('',(#34),#182,.F.);
#189=ADVANCED_FACE('',(#35),#183,.F.);
#190=ADVANCED_FACE('',(#36,#15),#21,.T.);
#191=ADVANCED_FACE('',(#37),#184,.T.);
#192=ADVANCED_FACE('',(#38,#16),#22,.F.);
#193=ADVANCED_FACE('',(#39,#17),#185,.F.);
#194=ADVANCED_FACE('',(#40,#18),#186,.T.);
#195=ADVANCED_FACE('',(#41,#19),#23,.T.);
#196=ADVANCED_FACE('',(#42,#20),#24,.F.);
#197=CLOSED_SHELL('',(#187,#188,#189,#190,#191,#192,#193,#194,#195,#196));
#198=DERIVED_UNIT_ELEMENT(#200,1.);
#199=DERIVED_UNIT_ELEMENT(#473,-3.);
#200=(
MASS_UNIT()
NAMED_UNIT(*)
SI_UNIT(.KILO.,.GRAM.)
);
#201=DERIVED_UNIT((#198,#199));
#202=MEASURE_REPRESENTATION_ITEM('density measure',
POSITIVE_RATIO_MEASURE(7850.),#201);
#203=PROPERTY_DEFINITION_REPRESENTATION(#208,#205);
#204=PROPERTY_DEFINITION_REPRESENTATION(#209,#206);
#205=REPRESENTATION('material name',(#207),#470);
#206=REPRESENTATION('density',(#202),#470);
#207=DESCRIPTIVE_REPRESENTATION_ITEM('Acier','Acier');
#208=PROPERTY_DEFINITION('material property','material name',#480);
#209=PROPERTY_DEFINITION('material property','density of part',#480);
#210=AXIS2_PLACEMENT_3D('',#275,#229,#230);
#211=AXIS2_PLACEMENT_3D('',#276,#231,#232);
#212=AXIS2_PLACEMENT_3D('',#360,#234,#235);
#213=AXIS2_PLACEMENT_3D('',#438,#237,#238);
#214=AXIS2_PLACEMENT_3D('',#440,#239,#240);
#215=AXIS2_PLACEMENT_3D('',#443,#242,#243);
#216=AXIS2_PLACEMENT_3D('',#444,#244,#245);
#217=AXIS2_PLACEMENT_3D('',#446,#246,#247);
#218=AXIS2_PLACEMENT_3D('',#447,#248,#249);
#219=AXIS2_PLACEMENT_3D('',#449,#250,#251);
#220=AXIS2_PLACEMENT_3D('',#452,#253,#254);
#221=AXIS2_PLACEMENT_3D('',#453,#255,#256);
#222=AXIS2_PLACEMENT_3D('',#455,#257,#258);
#223=AXIS2_PLACEMENT_3D('',#456,#259,#260);
#224=AXIS2_PLACEMENT_3D('',#460,#263,#264);
#225=AXIS2_PLACEMENT_3D('',#461,#265,#266);
#226=AXIS2_PLACEMENT_3D('',#463,#267,#268);
#227=AXIS2_PLACEMENT_3D('',#466,#271,#272);
#228=AXIS2_PLACEMENT_3D('',#467,#273,#274);
#229=DIRECTION('axis',(0.,0.,1.));
#230=DIRECTION('refdir',(1.,0.,0.));
#231=DIRECTION('center_axis',(-1.,0.,0.));
#232=DIRECTION('ref_axis',(0.,1.,0.));
#233=DIRECTION('',(-1.,0.,0.));
#234=DIRECTION('center_axis',(1.,0.,0.));
#235=DIRECTION('ref_axis',(0.,1.,0.));
#236=DIRECTION('',(1.,0.,0.));
#237=DIRECTION('center_axis',(0.,0.,-1.));
#238=DIRECTION('ref_axis',(-1.,0.,0.));
#239=DIRECTION('center_axis',(0.,0.,-1.));
#240=DIRECTION('ref_axis',(-1.,0.,0.));
#241=DIRECTION('',(0.,0.,-1.));
#242=DIRECTION('center_axis',(0.,0.,-1.));
#243=DIRECTION('ref_axis',(-1.,0.,0.));
#244=DIRECTION('center_axis',(0.,0.,1.));
#245=DIRECTION('ref_axis',(-1.,0.,0.));
#246=DIRECTION('center_axis',(0.,0.,1.));
#247=DIRECTION('ref_axis',(1.,0.,0.));
#248=DIRECTION('center_axis',(0.,0.,1.));
#249=DIRECTION('ref_axis',(1.,0.,0.));
#250=DIRECTION('center_axis',(0.,0.,-1.));
#251=DIRECTION('ref_axis',(1.,0.,0.));
#252=DIRECTION('',(0.,0.,1.));
#253=DIRECTION('center_axis',(0.,0.,-1.));
#254=DIRECTION('ref_axis',(1.,0.,0.));
#255=DIRECTION('center_axis',(0.,0.,1.));
#256=DIRECTION('ref_axis',(1.,0.,0.));
#257=DIRECTION('center_axis',(0.,0.,1.));
#258=DIRECTION('ref_axis',(1.,0.,0.));
#259=DIRECTION('center_axis',(0.,0.,1.));
#260=DIRECTION('ref_axis',(1.,0.,0.));
#261=DIRECTION('',(0.,0.,-1.));
#262=DIRECTION('',(0.,0.,-1.));
#263=DIRECTION('center_axis',(0.,0.,-1.));
#264=DIRECTION('ref_axis',(1.,0.,0.));
#265=DIRECTION('center_axis',(0.,0.,1.));
#266=DIRECTION('ref_axis',(1.,0.,0.));
#267=DIRECTION('center_axis',(0.,0.,1.));
#268=DIRECTION('ref_axis',(1.,0.,0.));
#269=DIRECTION('',(0.,0.,-1.));
#270=DIRECTION('',(0.,0.,-1.));
#271=DIRECTION('center_axis',(0.,0.,1.));
#272=DIRECTION('ref_axis',(1.,0.,0.));
#273=DIRECTION('center_axis',(0.,0.,1.));
#274=DIRECTION('ref_axis',(1.,0.,0.));
#275=CARTESIAN_POINT('',(0.,0.,0.));
#276=CARTESIAN_POINT('Origin',(0.,0.,13.0000001937151));
#277=CARTESIAN_POINT('',(-9.7082439194738,-4.,13.0000001937151));
#278=CARTESIAN_POINT('',(-10.5,-8.51106386669577E-16,17.0000001937151));
#279=CARTESIAN_POINT('Ctrl Pts',(-9.7082439194738,-4.,13.0000001937151));
#280=CARTESIAN_POINT('Ctrl Pts',(-9.7082439194738,-4.,13.5080683487433));
#281=CARTESIAN_POINT('Ctrl Pts',(-9.75233851515247,-3.89740639474244,14.0459921651978));
#282=CARTESIAN_POINT('Ctrl Pts',(-9.90624353677678,-3.4877240514727,15.0296948597815));
#283=CARTESIAN_POINT('Ctrl Pts',(-10.0132945060457,-3.18085817651444,15.475996266693));
#284=CARTESIAN_POINT('Ctrl Pts',(-10.2103731352774,-2.47628485006886,16.1805695931386));
#285=CARTESIAN_POINT('Ctrl Pts',(-10.3139252102475,-2.02987234834534,16.487655521612));
#286=CARTESIAN_POINT('Ctrl Pts',(-10.4596298287221,-1.04574320677496,16.8975049153433));
#287=CARTESIAN_POINT('Ctrl Pts',(-10.5,-0.507651851064492,17.0000001937151));
#288=CARTESIAN_POINT('Ctrl Pts',(-10.5,-1.38777878078145E-16,17.0000001937151));
#289=CARTESIAN_POINT('',(-14.2492105044455,-4.,13.0000001937151));
#290=CARTESIAN_POINT('',(0.,-4.,13.0000001937151));
#291=CARTESIAN_POINT('',(-14.8,-6.98071814251824E-16,17.0000001937151));
#292=CARTESIAN_POINT('Ctrl Pts',(-14.8,2.77555756156289E-16,17.0000001937151));
#293=CARTESIAN_POINT('Ctrl Pts',(-14.8,-0.504918575486921,17.0000001937151));
#294=CARTESIAN_POINT('Ctrl Pts',(-14.7715854642181,-1.04180530498037,16.8985800706763));
#295=CARTESIAN_POINT('Ctrl Pts',(-14.6689445579613,-2.02661318231168,16.4895735357149));
#296=CARTESIAN_POINT('Ctrl Pts',(-14.5960797542952,-2.47473196724044,16.182122475967));
#297=CARTESIAN_POINT('Ctrl Pts',(-14.4583386302636,-3.1821905476827,15.4746638955248));
#298=CARTESIAN_POINT('Ctrl Pts',(-14.384274850014,-3.48958851524422,15.0265732790367));
#299=CARTESIAN_POINT('Ctrl Pts',(-14.2788603350328,-3.89855613437825,14.0418662289004));
#300=CARTESIAN_POINT('Ctrl Pts',(-14.2492105044455,-4.,13.505016221721));
#301=CARTESIAN_POINT('Ctrl Pts',(-14.2492105044455,-4.,13.0000001937151));
#302=CARTESIAN_POINT('',(-14.8,-9.75627570408114E-16,9.00000019371509));
#303=CARTESIAN_POINT('Ctrl Pts',(-14.8,0.,9.00000019371509));
#304=CARTESIAN_POINT('Ctrl Pts',(-14.8,0.504918575486922,9.00000019371509));
#305=CARTESIAN_POINT('Ctrl Pts',(-14.7715854642181,1.04180530498037,9.10142031675387));
#306=CARTESIAN_POINT('Ctrl Pts',(-14.6689445579613,2.02661318231168,9.51042685171528));
#307=CARTESIAN_POINT('Ctrl Pts',(-14.5960797542952,2.47473196724044,9.81787791146315));
#308=CARTESIAN_POINT('Ctrl Pts',(-14.4583386302636,3.1821905476827,10.5253364919054));
#309=CARTESIAN_POINT('Ctrl Pts',(-14.384274850014,3.48958851524422,10.9734271083935));
#310=CARTESIAN_POINT('Ctrl Pts',(-14.2788603350328,3.89855613437825,11.9581341585298));
#311=CARTESIAN_POINT('Ctrl Pts',(-14.2492105044455,4.,12.4949841657092));
#312=CARTESIAN_POINT('Ctrl Pts',(-14.2492105044455,4.,13.505016221721));
#313=CARTESIAN_POINT('Ctrl Pts',(-14.2788603350328,3.89855613437825,14.0418662289004));
#314=CARTESIAN_POINT('Ctrl Pts',(-14.384274850014,3.48958851524422,15.0265732790367));
#315=CARTESIAN_POINT('Ctrl Pts',(-14.4583386302636,3.1821905476827,15.4746638955248));
#316=CARTESIAN_POINT('Ctrl Pts',(-14.5960797542952,2.47473196724044,16.182122475967));
#317=CARTESIAN_POINT('Ctrl Pts',(-14.6689445579613,2.02661318231168,16.4895735357149));
#318=CARTESIAN_POINT('Ctrl Pts',(-14.7715854642181,1.04180530498037,16.8985800706763));
#319=CARTESIAN_POINT('Ctrl Pts',(-14.8,0.504918575486922,17.0000001937151));
#320=CARTESIAN_POINT('Ctrl Pts',(-14.8,-1.38777878078145E-16,17.0000001937151));
#321=CARTESIAN_POINT('Ctrl Pts',(-14.2492105044455,-4.,13.0000001937151));
#322=CARTESIAN_POINT('Ctrl Pts',(-14.2492105044455,-4.,12.4949841657092));
#323=CARTESIAN_POINT('Ctrl Pts',(-14.2788603350328,-3.89855613437825,11.9581341585298));
#324=CARTESIAN_POINT('Ctrl Pts',(-14.384274850014,-3.48958851524422,10.9734271083935));
#325=CARTESIAN_POINT('Ctrl Pts',(-14.4583386302636,-3.1821905476827,10.5253364919054));
#326=CARTESIAN_POINT('Ctrl Pts',(-14.5960797542952,-2.47473196724044,9.81787791146315));
#327=CARTESIAN_POINT('Ctrl Pts',(-14.6689445579613,-2.02661318231168,9.51042685171528));
#328=CARTESIAN_POINT('Ctrl Pts',(-14.7715854642181,-1.04180530498037,9.10142031675387));
#329=CARTESIAN_POINT('Ctrl Pts',(-14.8,-0.504918575486921,9.00000019371509));
#330=CARTESIAN_POINT('Ctrl Pts',(-14.8,4.16333634234434E-16,9.00000019371509));
#331=CARTESIAN_POINT('',(-10.5,-1.84391182007101E-17,9.00000019371509));
#332=CARTESIAN_POINT('Ctrl Pts',(-10.5,1.11022302462516E-15,9.00000019371509));
#333=CARTESIAN_POINT('Ctrl Pts',(-10.5,-0.50765185106449,9.00000019371509));
#334=CARTESIAN_POINT('Ctrl Pts',(-10.4596298287221,-1.04574320677495,9.10249547208688));
#335=CARTESIAN_POINT('Ctrl Pts',(-10.3139252102475,-2.02987234834533,9.51234486581816));
#336=CARTESIAN_POINT('Ctrl Pts',(-10.2103731352774,-2.47628485006886,9.81943079429157));
#337=CARTESIAN_POINT('Ctrl Pts',(-10.0132945060457,-3.18085817651444,10.5240041207372));
#338=CARTESIAN_POINT('Ctrl Pts',(-9.90624353677678,-3.4877240514727,10.9703055276487));
#339=CARTESIAN_POINT('Ctrl Pts',(-9.75233851515247,-3.89740639474244,11.9540082222323));
#340=CARTESIAN_POINT('Ctrl Pts',(-9.7082439194738,-4.,12.4919320386869));
#341=CARTESIAN_POINT('Ctrl Pts',(-9.7082439194738,-4.,13.0000001937151));
#342=CARTESIAN_POINT('Ctrl Pts',(-10.5,-6.93889390390723E-16,17.0000001937151));
#343=CARTESIAN_POINT('Ctrl Pts',(-10.5,0.507651851064491,17.0000001937151));
#344=CARTESIAN_POINT('Ctrl Pts',(-10.4596298287221,1.04574320677495,16.8975049153433));
#345=CARTESIAN_POINT('Ctrl Pts',(-10.3139252102475,2.02987234834534,16.487655521612));
#346=CARTESIAN_POINT('Ctrl Pts',(-10.2103731352774,2.47628485006886,16.1805695931386));
#347=CARTESIAN_POINT('Ctrl Pts',(-10.0132945060457,3.18085817651444,15.475996266693));
#348=CARTESIAN_POINT('Ctrl Pts',(-9.90624353677678,3.48772405147269,15.0296948597815));
#349=CARTESIAN_POINT('Ctrl Pts',(-9.75233851515247,3.89740639474244,14.0459921651978));
#350=CARTESIAN_POINT('Ctrl Pts',(-9.7082439194738,4.,13.5080683487433));
#351=CARTESIAN_POINT('Ctrl Pts',(-9.7082439194738,4.,12.4919320386869));
#352=CARTESIAN_POINT('Ctrl Pts',(-9.75233851515247,3.89740639474244,11.9540082222323));
#353=CARTESIAN_POINT('Ctrl Pts',(-9.90624353677678,3.4877240514727,10.9703055276487));
#354=CARTESIAN_POINT('Ctrl Pts',(-10.0132945060457,3.18085817651444,10.5240041207372));
#355=CARTESIAN_POINT('Ctrl Pts',(-10.2103731352774,2.47628485006886,9.81943079429158));
#356=CARTESIAN_POINT('Ctrl Pts',(-10.3139252102475,2.02987234834534,9.51234486581816));
#357=CARTESIAN_POINT('Ctrl Pts',(-10.4596298287221,1.04574320677496,9.10249547208688));
#358=CARTESIAN_POINT('Ctrl Pts',(-10.5,0.507651851064494,9.00000019371509));
#359=CARTESIAN_POINT('Ctrl Pts',(-10.5,1.2490009027033E-15,9.00000019371509));
#360=CARTESIAN_POINT('Origin',(0.,0.,13.0000001937151));
#361=CARTESIAN_POINT('',(9.7082439194738,4.,13.0000001937151));
#362=CARTESIAN_POINT('',(9.7082439194738,-4.,13.0000001937151));
#363=CARTESIAN_POINT('Ctrl Pts',(9.7082439194738,4.,13.0000001937151));
#364=CARTESIAN_POINT('Ctrl Pts',(9.7082439194738,4.,13.5080683487433));
#365=CARTESIAN_POINT('Ctrl Pts',(9.75233851515247,3.89740639474244,14.0459921651978));
#366=CARTESIAN_POINT('Ctrl Pts',(9.90624353677678,3.4877240514727,15.0296948597815));
#367=CARTESIAN_POINT('Ctrl Pts',(10.0132945060457,3.18085817651444,15.475996266693));
#368=CARTESIAN_POINT('Ctrl Pts',(10.2103731352774,2.47628485006886,16.1805695931386));
#369=CARTESIAN_POINT('Ctrl Pts',(10.3139252102475,2.02987234834534,16.487655521612));
#370=CARTESIAN_POINT('Ctrl Pts',(10.4596298287221,1.04574320677496,16.8975049153433));
#371=CARTESIAN_POINT('Ctrl Pts',(10.5,0.507651851064492,17.0000001937151));
#372=CARTESIAN_POINT('Ctrl Pts',(10.5,-0.507651851064491,17.0000001937151));
#373=CARTESIAN_POINT('Ctrl Pts',(10.4596298287221,-1.04574320677495,16.8975049153433));
#374=CARTESIAN_POINT('Ctrl Pts',(10.3139252102475,-2.02987234834534,16.487655521612));
#375=CARTESIAN_POINT('Ctrl Pts',(10.2103731352774,-2.47628485006886,16.1805695931386));
#376=CARTESIAN_POINT('Ctrl Pts',(10.0132945060457,-3.18085817651444,15.475996266693));
#377=CARTESIAN_POINT('Ctrl Pts',(9.90624353677678,-3.4877240514727,15.0296948597815));
#378=CARTESIAN_POINT('Ctrl Pts',(9.75233851515247,-3.89740639474244,14.0459921651978));
#379=CARTESIAN_POINT('Ctrl Pts',(9.7082439194738,-4.,13.5080683487433));
#380=CARTESIAN_POINT('Ctrl Pts',(9.7082439194738,-4.,13.0000001937151));
#381=CARTESIAN_POINT('Ctrl Pts',(9.7082439194738,-4.,13.0000001937151));
#382=CARTESIAN_POINT('Ctrl Pts',(9.7082439194738,-4.,12.4919320386869));
#383=CARTESIAN_POINT('Ctrl Pts',(9.75233851515247,-3.89740639474244,11.9540082222323));
#384=CARTESIAN_POINT('Ctrl Pts',(9.90624353677678,-3.4877240514727,10.9703055276487));
#385=CARTESIAN_POINT('Ctrl Pts',(10.0132945060457,-3.18085817651444,10.5240041207372));
#386=CARTESIAN_POINT('Ctrl Pts',(10.2103731352774,-2.47628485006886,9.81943079429158));
#387=CARTESIAN_POINT('Ctrl Pts',(10.3139252102475,-2.02987234834534,9.51234486581816));
#388=CARTESIAN_POINT('Ctrl Pts',(10.4596298287221,-1.04574320677496,9.10249547208688));
#389=CARTESIAN_POINT('Ctrl Pts',(10.5,-0.507651851064493,9.00000019371509));
#390=CARTESIAN_POINT('Ctrl Pts',(10.5,0.507651851064492,9.00000019371509));
#391=CARTESIAN_POINT('Ctrl Pts',(10.4596298287221,1.04574320677496,9.10249547208688));
#392=CARTESIAN_POINT('Ctrl Pts',(10.3139252102475,2.02987234834534,9.51234486581816));
#393=CARTESIAN_POINT('Ctrl Pts',(10.2103731352774,2.47628485006886,9.81943079429158));
#394=CARTESIAN_POINT('Ctrl Pts',(10.0132945060457,3.18085817651444,10.5240041207372));
#395=CARTESIAN_POINT('Ctrl Pts',(9.90624353677678,3.4877240514727,10.9703055276487));
#396=CARTESIAN_POINT('Ctrl Pts',(9.75233851515247,3.89740639474244,11.9540082222323));
#397=CARTESIAN_POINT('Ctrl Pts',(9.7082439194738,4.,12.4919320386869));
#398=CARTESIAN_POINT('Ctrl Pts',(9.7082439194738,4.,13.0000001937151));
#399=CARTESIAN_POINT('',(14.2492105044455,-4.,13.0000001937151));
#400=CARTESIAN_POINT('',(0.,-4.,13.0000001937151));
#401=CARTESIAN_POINT('',(14.2492105044455,4.,13.0000001937151));
#402=CARTESIAN_POINT('Ctrl Pts',(14.2492105044455,4.,13.0000001937151));
#403=CARTESIAN_POINT('Ctrl Pts',(14.2492105044455,4.,12.4949841657092));
#404=CARTESIAN_POINT('Ctrl Pts',(14.2788603350328,3.89855613437825,11.9581341585298));
#405=CARTESIAN_POINT('Ctrl Pts',(14.384274850014,3.48958851524422,10.9734271083935));
#406=CARTESIAN_POINT('Ctrl Pts',(14.4583386302636,3.1821905476827,10.5253364919054));
#407=CARTESIAN_POINT('Ctrl Pts',(14.5960797542952,2.47473196724044,9.81787791146315));
#408=CARTESIAN_POINT('Ctrl Pts',(14.6689445579613,2.02661318231168,9.51042685171528));
#409=CARTESIAN_POINT('Ctrl Pts',(14.7715854642181,1.04180530498037,9.10142031675387));
#410=CARTESIAN_POINT('Ctrl Pts',(14.8,0.504918575486922,9.00000019371509));
#411=CARTESIAN_POINT('Ctrl Pts',(14.8,-0.504918575486922,9.00000019371509));
#412=CARTESIAN_POINT('Ctrl Pts',(14.7715854642181,-1.04180530498037,9.10142031675387));
#413=CARTESIAN_POINT('Ctrl Pts',(14.6689445579613,-2.02661318231168,9.51042685171528));
#414=CARTESIAN_POINT('Ctrl Pts',(14.5960797542952,-2.47473196724044,9.81787791146315));
#415=CARTESIAN_POINT('Ctrl Pts',(14.4583386302636,-3.1821905476827,10.5253364919054));
#416=CARTESIAN_POINT('Ctrl Pts',(14.384274850014,-3.48958851524422,10.9734271083935));
#417=CARTESIAN_POINT('Ctrl Pts',(14.2788603350328,-3.89855613437825,11.9581341585298));
#418=CARTESIAN_POINT('Ctrl Pts',(14.2492105044455,-4.,12.4949841657092));
#419=CARTESIAN_POINT('Ctrl Pts',(14.2492105044455,-4.,13.0000001937151));
#420=CARTESIAN_POINT('Ctrl Pts',(14.2492105044455,-4.,13.0000001937151));
#421=CARTESIAN_POINT('Ctrl Pts',(14.2492105044455,-4.,13.505016221721));
#422=CARTESIAN_POINT('Ctrl Pts',(14.2788603350328,-3.89855613437825,14.0418662289004));
#423=CARTESIAN_POINT('Ctrl Pts',(14.384274850014,-3.48958851524422,15.0265732790367));
#424=CARTESIAN_POINT('Ctrl Pts',(14.4583386302636,-3.18219054768271,15.4746638955248));
#425=CARTESIAN_POINT('Ctrl Pts',(14.5960797542952,-2.47473196724044,16.182122475967));
#426=CARTESIAN_POINT('Ctrl Pts',(14.6689445579613,-2.02661318231168,16.4895735357149));
#427=CARTESIAN_POINT('Ctrl Pts',(14.7715854642181,-1.04180530498037,16.8985800706763));
#428=CARTESIAN_POINT('Ctrl Pts',(14.8,-0.504918575486923,17.0000001937151));
#429=CARTESIAN_POINT('Ctrl Pts',(14.8,0.504918575486921,17.0000001937151));
#430=CARTESIAN_POINT('Ctrl Pts',(14.7715854642181,1.04180530498037,16.8985800706763));
#431=CARTESIAN_POINT('Ctrl Pts',(14.6689445579613,2.02661318231168,16.4895735357149));
#432=CARTESIAN_POINT('Ctrl Pts',(14.5960797542952,2.47473196724044,16.182122475967));
#433=CARTESIAN_POINT('Ctrl Pts',(14.4583386302636,3.18219054768271,15.4746638955248));
#434=CARTESIAN_POINT('Ctrl Pts',(14.384274850014,3.48958851524423,15.0265732790367));
#435=CARTESIAN_POINT('Ctrl Pts',(14.2788603350328,3.89855613437825,14.0418662289004));
#436=CARTESIAN_POINT('Ctrl Pts',(14.2492105044455,4.,13.505016221721));
#437=CARTESIAN_POINT('Ctrl Pts',(14.2492105044455,4.,13.0000001937151));
#438=CARTESIAN_POINT('Origin',(0.,0.,25.2));
#439=CARTESIAN_POINT('',(11.75,1.43895998899814E-15,25.2));
#440=CARTESIAN_POINT('Origin',(0.,0.,25.2));
#441=CARTESIAN_POINT('',(11.75,1.43895998899814E-15,20.2));
#442=CARTESIAN_POINT('',(11.75,-1.43895998899814E-15,25.2));
#443=CARTESIAN_POINT('Origin',(0.,0.,20.2));
#444=CARTESIAN_POINT('Origin',(0.,0.,20.2));
#445=CARTESIAN_POINT('',(-10.5,-1.28587913910472E-15,20.2));
#446=CARTESIAN_POINT('Origin',(0.,0.,20.2));
#447=CARTESIAN_POINT('Origin',(0.,0.,0.));
#448=CARTESIAN_POINT('',(-11.85,-1.45120645698961E-15,0.));
#449=CARTESIAN_POINT('Origin',(0.,0.,0.));
#450=CARTESIAN_POINT('',(-11.85,-1.45120645698961E-15,5.));
#451=CARTESIAN_POINT('',(-11.85,-1.45120645698961E-15,0.));
#452=CARTESIAN_POINT('Origin',(0.,0.,5.));
#453=CARTESIAN_POINT('Origin',(0.,0.,5.));
#454=CARTESIAN_POINT('',(-14.8,-1.81247726273808E-15,5.));
#455=CARTESIAN_POINT('Origin',(0.,0.,5.));
#456=CARTESIAN_POINT('Origin',(0.,0.,0.));
#457=CARTESIAN_POINT('',(-10.5,-1.28587913910472E-15,0.));
#458=CARTESIAN_POINT('',(-10.5,-1.28587913910472E-15,0.));
#459=CARTESIAN_POINT('',(-10.5,-1.28587913910472E-15,0.));
#460=CARTESIAN_POINT('Origin',(0.,0.,0.));
#461=CARTESIAN_POINT('Origin',(0.,0.,0.));
#462=CARTESIAN_POINT('',(-14.8,-1.81247726273808E-15,25.2));
#463=CARTESIAN_POINT('Origin',(0.,0.,25.2));
#464=CARTESIAN_POINT('',(-14.8,-1.81247726273808E-15,0.));
#465=CARTESIAN_POINT('',(-14.8,-1.81247726273808E-15,0.));
#466=CARTESIAN_POINT('Origin',(0.,0.,25.2));
#467=CARTESIAN_POINT('Origin',(0.,0.,0.));
#468=UNCERTAINTY_MEASURE_WITH_UNIT(LENGTH_MEASURE(0.01),#472,
'DISTANCE_ACCURACY_VALUE',
'Maximum model space distance between geometric entities at asserted c
onnectivities');
#469=UNCERTAINTY_MEASURE_WITH_UNIT(LENGTH_MEASURE(0.01),#472,
'DISTANCE_ACCURACY_VALUE',
'Maximum model space distance between geometric entities at asserted c
onnectivities');
#470=(
GEOMETRIC_REPRESENTATION_CONTEXT(3)
GLOBAL_UNCERTAINTY_ASSIGNED_CONTEXT((#468))
GLOBAL_UNIT_ASSIGNED_CONTEXT((#472,#474,#475))
REPRESENTATION_CONTEXT('','3D')
);
#471=(
GEOMETRIC_REPRESENTATION_CONTEXT(3)
GLOBAL_UNCERTAINTY_ASSIGNED_CONTEXT((#469))
GLOBAL_UNIT_ASSIGNED_CONTEXT((#472,#474,#475))
REPRESENTATION_CONTEXT('','3D')
);
#472=(
LENGTH_UNIT()
NAMED_UNIT(*)
SI_UNIT(.MILLI.,.METRE.)
);
#473=(
LENGTH_UNIT()
NAMED_UNIT(*)
SI_UNIT($,.METRE.)
);
#474=(
NAMED_UNIT(*)
PLANE_ANGLE_UNIT()
SI_UNIT($,.RADIAN.)
);
#475=(
NAMED_UNIT(*)
SI_UNIT($,.STERADIAN.)
SOLID_ANGLE_UNIT()
);
#476=SHAPE_DEFINITION_REPRESENTATION(#477,#478);
#477=PRODUCT_DEFINITION_SHAPE('',$,#480);
#478=SHAPE_REPRESENTATION('',(#210),#470);
#479=PRODUCT_DEFINITION_CONTEXT('part definition',#484,'design');
#480=PRODUCT_DEFINITION('CALE RESSORT DE FOURCHE',
'CALE RESSORT DE FOURCHE v2',#481,#479);
#481=PRODUCT_DEFINITION_FORMATION('',$,#486);
#482=PRODUCT_RELATED_PRODUCT_CATEGORY('CALE RESSORT DE FOURCHE v2',
'CALE RESSORT DE FOURCHE v2',(#486));
#483=APPLICATION_PROTOCOL_DEFINITION('international standard',
'automotive_design',2009,#484);
#484=APPLICATION_CONTEXT(
'Core Data for Automotive Mechanical Design Process');
#485=PRODUCT_CONTEXT('part definition',#484,'mechanical');
#486=PRODUCT('CALE RESSORT DE FOURCHE','CALE RESSORT DE FOURCHE v2',$,(#485));
#487=PRESENTATION_STYLE_ASSIGNMENT((#488));
#488=SURFACE_STYLE_USAGE(.BOTH.,#489);
#489=SURFACE_SIDE_STYLE('',(#490));
#490=SURFACE_STYLE_FILL_AREA(#491);
#491=FILL_AREA_STYLE('Acier - Satin\X\E9',(#492));
#492=FILL_AREA_STYLE_COLOUR('Acier - Satin\X\E9',#493);
#493=COLOUR_RGB('Acier - Satin\X\E9',0.627450980392157,0.627450980392157,
0.627450980392157);
ENDSEC;
END-ISO-10303-21;
