ISO-10303-21;
HEADER;
FILE_DESCRIPTION (( 'STEP AP214' ),
    '1' );
FILE_NAME ('Support Visio 321.STEP',
    '2024-06-17T13:39:42',
    ( '' ),
    ( '' ),
    'SwSTEP 2.0',
    'SolidWorks 2022',
    '' );
FILE_SCHEMA (( 'AUTOMOTIVE_DESIGN' ));
ENDSEC;

DATA;
#1 = DIRECTION ( 'NONE',  ( 1.000000000000000000, 0.000000000000000000, -4.299741949002343858E-16 ) ) ;
#2 = PLANE ( 'NONE',  #69 ) ;
#3 = VECTOR ( 'NONE', #184, 999.9999999999998863 ) ;
#4 = DIRECTION ( 'NONE',  ( -0.8177653254166430408, 0.000000000000000000, -0.5755517983172426799 ) ) ;
#5 = EDGE_CURVE ( 'NONE', #6, #67, #92, .T. ) ;
#6 = VERTEX_POINT ( 'NONE', #106 ) ;
#7 = CARTESIAN_POINT ( 'NONE',  ( -52.90845495175487656, 0.000000000000000000, -27.82570637879403463 ) ) ;
#8 = PRODUCT_DEFINITION_FORMATION_WITH_SPECIFIED_SOURCE ( 'ANY', '', #219, .NOT_KNOWN. ) ;
#9 = PRODUCT_DEFINITION_CONTEXT ( 'detailed design', #225, 'design' ) ;
#10 = DIRECTION ( 'NONE',  ( 0.000000000000000000, -1.000000000000000000, 0.000000000000000000 ) ) ;
#11 = EDGE_LOOP ( 'NONE', ( #104, #89, #47, #15, #30 ) ) ;
#12 = EDGE_CURVE ( 'NONE', #211, #48, #73, .T. ) ;
#13 = CARTESIAN_POINT ( 'NONE',  ( -0.4999999999999880651, 0.000000000000000000, 0.5000000000000125455 ) ) ;
#14 = ORIENTED_EDGE ( 'NONE', *, *, #133, .F. ) ;
#15 = ORIENTED_EDGE ( 'NONE', *, *, #126, .T. ) ;
#16 = ORIENTED_EDGE ( 'NONE', *, *, #203, .T. ) ;
#17 = PRODUCT_CONTEXT ( 'NONE', #162, 'mechanical' ) ;
#18 = DIRECTION ( 'NONE',  ( 0.000000000000000000, 1.000000000000000000, 0.000000000000000000 ) ) ;
#19 =( NAMED_UNIT ( * ) SI_UNIT ( $, .STERADIAN. ) SOLID_ANGLE_UNIT ( ) );
#20 = ADVANCED_FACE ( 'NONE', ( #156 ), #141, .F. ) ;
#21 = COLOUR_RGB ( '',0.7921568627450980005, 0.8196078431372548767, 0.9333333333333333481 ) ;
#22 = LINE ( 'NONE', #183, #87 ) ;
#23 = LINE ( 'NONE', #127, #201 ) ;
#24 = MANIFOLD_SOLID_BREP ( 'Boss.-Extru.2', #74 ) ;
#25 = PLANE ( 'NONE',  #49 ) ;
#26 = CARTESIAN_POINT ( 'NONE',  ( -0.4999999999999880651, -321.0000000000000000, 0.5000000000000125455 ) ) ;
#27 = PRODUCT_DEFINITION ( 'UNKNOWN', '', #8, #9 ) ;
#28 = DIRECTION ( 'NONE',  ( 0.000000000000000000, 1.000000000000000000, 0.000000000000000000 ) ) ;
#29 = DIRECTION ( 'NONE',  ( 0.5755517983172436791, 0.000000000000000000, -0.8177653254166422636 ) ) ;
#30 = ORIENTED_EDGE ( 'NONE', *, *, #151, .T. ) ;
#31 = ORIENTED_EDGE ( 'NONE', *, *, #12, .T. ) ;
#32 = ORIENTED_EDGE ( 'NONE', *, *, #194, .F. ) ;
#33 = ORIENTED_EDGE ( 'NONE', *, *, #71, .F. ) ;
#34 = ORIENTED_EDGE ( 'NONE', *, *, #213, .T. ) ;
#35 = CARTESIAN_POINT ( 'NONE',  ( 0.000000000000000000, 0.000000000000000000, 0.000000000000000000 ) ) ;
#36 = LINE ( 'NONE', #200, #51 ) ;
#37 = DIRECTION ( 'NONE',  ( 0.000000000000000000, -0.000000000000000000, -1.000000000000000000 ) ) ;
#38 = EDGE_CURVE ( 'NONE', #67, #228, #68, .T. ) ;
#39 = FACE_OUTER_BOUND ( 'NONE', #11, .T. ) ;
#40 = AXIS2_PLACEMENT_3D ( 'NONE', #232, #215, #155 ) ;
#41 = CARTESIAN_POINT ( 'NONE',  ( -0.4999999999999880651, -321.0000000000000000, 0.5000000000000125455 ) ) ;
#42 = FACE_OUTER_BOUND ( 'NONE', #138, .T. ) ;
#43 = VECTOR ( 'NONE', #222, 1000.000000000000000 ) ;
#44 = LINE ( 'NONE', #26, #45 ) ;
#45 = VECTOR ( 'NONE', #28, 1000.000000000000000 ) ;
#46 = ADVANCED_FACE ( 'NONE', ( #204 ), #94, .F. ) ;
#47 = ORIENTED_EDGE ( 'NONE', *, *, #165, .T. ) ;
#48 = VERTEX_POINT ( 'NONE', #185 ) ;
#49 = AXIS2_PLACEMENT_3D ( 'NONE', #41, #159, #128 ) ;
#50 = SURFACE_STYLE_FILL_AREA ( #52 ) ;
#51 = VECTOR ( 'NONE', #163, 1000.000000000000000 ) ;
#52 = FILL_AREA_STYLE ('',( #110 ) ) ;
#53 = EDGE_LOOP ( 'NONE', ( #177, #168, #230, #142 ) ) ;
#54 = ORIENTED_EDGE ( 'NONE', *, *, #133, .T. ) ;
#55 = ADVANCED_FACE ( 'NONE', ( #42 ), #25, .F. ) ;
#56 = DIRECTION ( 'NONE',  ( -0.8177653254166422636, 0.000000000000000000, -0.5755517983172435681 ) ) ;
#57 = DIRECTION ( 'NONE',  ( 0.5755517983172436791, 0.000000000000000000, -0.8177653254166423746 ) ) ;
#58 = LINE ( 'NONE', #114, #123 ) ;
#59 = PRESENTATION_LAYER_ASSIGNMENT (  '', '', ( #130 ) ) ;
#60 = LINE ( 'NONE', #112, #174 ) ;
#61 = PRODUCT_DEFINITION_SHAPE ( 'NONE', 'NONE',  #27 ) ;
#62 = LINE ( 'NONE', #118, #105 ) ;
#63 = DIRECTION ( 'NONE',  ( 0.000000000000000000, 1.000000000000000000, 0.000000000000000000 ) ) ;
#64 = SURFACE_SIDE_STYLE ('',( #152 ) ) ;
#65 = ADVANCED_FACE ( 'NONE', ( #98 ), #2, .F. ) ;
#66 =( LENGTH_UNIT ( ) NAMED_UNIT ( * ) SI_UNIT ( .MILLI., .METRE. ) );
#67 = VERTEX_POINT ( 'NONE', #143 ) ;
#68 = LINE ( 'NONE', #145, #160 ) ;
#69 = AXIS2_PLACEMENT_3D ( 'NONE', #77, #4, #78 ) ;
#70 = VECTOR ( 'NONE', #29, 999.9999999999998863 ) ;
#71 = EDGE_CURVE ( 'NONE', #196, #6, #23, .T. ) ;
#72 = DIRECTION ( 'NONE',  ( 1.000000000000000000, 0.000000000000000000, 0.000000000000000000 ) ) ;
#73 = LINE ( 'NONE', #13, #212 ) ;
#74 = CLOSED_SHELL ( 'NONE', ( #65, #129, #20, #46, #55, #147, #172 ) ) ;
#75 = CARTESIAN_POINT ( 'NONE',  ( -0.4999999999999880651, -321.0000000000000000, 0.5000000000000125455 ) ) ;
#76 = AXIS2_PLACEMENT_3D ( 'NONE', #167, #10, #226 ) ;
#77 = CARTESIAN_POINT ( 'NONE',  ( 57.99999999999999289, -321.0000000000000000, 0.4999999999999874545 ) ) ;
#78 = DIRECTION ( 'NONE',  ( -0.5755517983172426799, 0.000000000000000000, 0.8177653254166430408 ) ) ;
#79 = DIRECTION ( 'NONE',  ( -0.5755517983172426799, 0.000000000000000000, 0.8177653254166430408 ) ) ;
#80 = AXIS2_PLACEMENT_3D ( 'NONE', #35, #95, #72 ) ;
#81 = CARTESIAN_POINT ( 'NONE',  ( 57.99999999999999289, -321.0000000000000000, 0.4999999999999874545 ) ) ;
#82 = ORIENTED_EDGE ( 'NONE', *, *, #93, .T. ) ;
#83 =( NAMED_UNIT ( * ) PLANE_ANGLE_UNIT ( ) SI_UNIT ( $, .RADIAN. ) );
#84 = VECTOR ( 'NONE', #233, 1000.000000000000000 ) ;
#85 = UNCERTAINTY_MEASURE_WITH_UNIT (LENGTH_MEASURE( 1.000000000000000082E-05 ), #99, 'distance_accuracy_value', 'NONE');
#86 =( NAMED_UNIT ( * ) PLANE_ANGLE_UNIT ( ) SI_UNIT ( $, .RADIAN. ) );
#87 = VECTOR ( 'NONE', #131, 1000.000000000000000 ) ;
#88 = VERTEX_POINT ( 'NONE', #148 ) ;
#89 = ORIENTED_EDGE ( 'NONE', *, *, #5, .T. ) ;
#90 = VERTEX_POINT ( 'NONE', #75 ) ;
#91 = MECHANICAL_DESIGN_GEOMETRIC_PRESENTATION_REPRESENTATION (  '', ( #130 ), #208 ) ;
#92 = LINE ( 'NONE', #178, #84 ) ;
#93 = EDGE_CURVE ( 'NONE', #228, #198, #146, .T. ) ;
#94 = PLANE ( 'NONE',  #150 ) ;
#95 = DIRECTION ( 'NONE',  ( 0.000000000000000000, 0.000000000000000000, 1.000000000000000000 ) ) ;
#96 = CARTESIAN_POINT ( 'NONE',  ( -52.90845495175487656, 0.000000000000000000, -27.82570637879403463 ) ) ;
#97 = PLANE ( 'NONE',  #229 ) ;
#98 = FACE_OUTER_BOUND ( 'NONE', #193, .T. ) ;
#99 =( LENGTH_UNIT ( ) NAMED_UNIT ( * ) SI_UNIT ( .MILLI., .METRE. ) );
#100 = FACE_OUTER_BOUND ( 'NONE', #195, .T. ) ;
#101 = COLOUR_RGB ( '',0.7921568627450980005, 0.8196078431372548767, 0.9333333333333333481 ) ;
#102 = UNCERTAINTY_MEASURE_WITH_UNIT (LENGTH_MEASURE( 1.000000000000000082E-05 ), #134, 'distance_accuracy_value', 'NONE');
#103 = DIRECTION ( 'NONE',  ( 0.000000000000000000, 1.000000000000000000, 0.000000000000000000 ) ) ;
#104 = ORIENTED_EDGE ( 'NONE', *, *, #71, .T. ) ;
#105 = VECTOR ( 'NONE', #103, 1000.000000000000000 ) ;
#106 = CARTESIAN_POINT ( 'NONE',  ( 34.59243486782585819, -321.0000000000000000, 33.75833604115103270 ) ) ;
#107 = ORIENTED_EDGE ( 'NONE', *, *, #126, .F. ) ;
#108 = ORIENTED_EDGE ( 'NONE', *, *, #38, .T. ) ;
#109 = VECTOR ( 'NONE', #169, 1000.000000000000000 ) ;
#110 = FILL_AREA_STYLE_COLOUR ( '', #101 ) ;
#111 = PLANE ( 'NONE',  #170 ) ;
#112 = CARTESIAN_POINT ( 'NONE',  ( -0.4999999999999880651, -321.0000000000000000, 0.5000000000000125455 ) ) ;
#113 = EDGE_CURVE ( 'NONE', #6, #216, #161, .T. ) ;
#114 = CARTESIAN_POINT ( 'NONE',  ( 34.59243486782585819, 0.000000000000000000, 33.75833604115103270 ) ) ;
#115 =( NAMED_UNIT ( * ) PLANE_ANGLE_UNIT ( ) SI_UNIT ( $, .RADIAN. ) );
#116 = SURFACE_STYLE_USAGE ( .BOTH. , #64 ) ;
#117 = PRESENTATION_STYLE_ASSIGNMENT (( #116 ) ) ;
#118 = CARTESIAN_POINT ( 'NONE',  ( -0.5000000000000109912, -321.0000000000000000, -102.2895814696369570 ) ) ;
#119 = LINE ( 'NONE', #191, #70 ) ;
#120 =( NAMED_UNIT ( * ) SI_UNIT ( $, .STERADIAN. ) SOLID_ANGLE_UNIT ( ) );
#121 = ORIENTED_EDGE ( 'NONE', *, *, #203, .F. ) ;
#122 = ORIENTED_EDGE ( 'NONE', *, *, #93, .F. ) ;
#123 = VECTOR ( 'NONE', #137, 1000.000000000000000 ) ;
#124 = SURFACE_SIDE_STYLE ('',( #50 ) ) ;
#125 = SURFACE_STYLE_USAGE ( .BOTH. , #124 ) ;
#126 = EDGE_CURVE ( 'NONE', #88, #90, #22, .T. ) ;
#127 = CARTESIAN_POINT ( 'NONE',  ( 57.99999999999999289, -321.0000000000000000, 0.4999999999999874545 ) ) ;
#128 = DIRECTION ( 'NONE',  ( 1.000000000000000000, 0.000000000000000000, -4.299741949002343858E-16 ) ) ;
#129 = ADVANCED_FACE ( 'NONE', ( #223 ), #97, .F. ) ;
#130 = STYLED_ITEM ( 'NONE', ( #180 ), #24 ) ;
#131 = DIRECTION ( 'NONE',  ( 2.225582156514732720E-16, 0.000000000000000000, 1.000000000000000000 ) ) ;
#132 = VECTOR ( 'NONE', #63, 1000.000000000000000 ) ;
#133 = EDGE_CURVE ( 'NONE', #198, #211, #36, .T. ) ;
#134 =( LENGTH_UNIT ( ) NAMED_UNIT ( * ) SI_UNIT ( .MILLI., .METRE. ) );
#135 = CARTESIAN_POINT ( 'NONE',  ( 57.99999999999999289, 0.000000000000000000, 0.4999999999999874545 ) ) ;
#136 = PRODUCT_RELATED_PRODUCT_CATEGORY ( 'part', '', ( #219 ) ) ;
#137 = DIRECTION ( 'NONE',  ( -0.8177653254166423746, 0.000000000000000000, -0.5755517983172436791 ) ) ;
#138 = EDGE_LOOP ( 'NONE', ( #31, #121, #176, #34 ) ) ;
#139 = ORIENTED_EDGE ( 'NONE', *, *, #213, .F. ) ;
#140 = DIRECTION ( 'NONE',  ( 1.000000000000000000, 0.000000000000000000, -4.299741949002343858E-16 ) ) ;
#141 = PLANE ( 'NONE',  #40 ) ;
#142 = ORIENTED_EDGE ( 'NONE', *, *, #113, .T. ) ;
#143 = CARTESIAN_POINT ( 'NONE',  ( -52.90845495175487656, -321.0000000000000000, -27.82570637879403463 ) ) ;
#144 = CARTESIAN_POINT ( 'NONE',  ( 34.59243486782585819, -321.0000000000000000, 33.75833604115103270 ) ) ;
#145 = CARTESIAN_POINT ( 'NONE',  ( -52.90845495175487656, -321.0000000000000000, -27.82570637879403463 ) ) ;
#146 = LINE ( 'NONE', #96, #3 ) ;
#147 = ADVANCED_FACE ( 'NONE', ( #39 ), #111, .T. ) ;
#148 = CARTESIAN_POINT ( 'NONE',  ( -0.5000000000000109912, -321.0000000000000000, -102.2895814696369570 ) ) ;
#149 = LINE ( 'NONE', #135, #109 ) ;
#150 = AXIS2_PLACEMENT_3D ( 'NONE', #220, #164, #218 ) ;
#151 = EDGE_CURVE ( 'NONE', #90, #196, #60, .T. ) ;
#152 = SURFACE_STYLE_FILL_AREA ( #207 ) ;
#153 = EDGE_CURVE ( 'NONE', #216, #228, #58, .T. ) ;
#154 = ORIENTED_EDGE ( 'NONE', *, *, #221, .F. ) ;
#155 = DIRECTION ( 'NONE',  ( 0.5755517983172436791, 0.000000000000000000, -0.8177653254166422636 ) ) ;
#156 = FACE_OUTER_BOUND ( 'NONE', #157, .T. ) ;
#157 = EDGE_LOOP ( 'NONE', ( #82, #32, #231, #108 ) ) ;
#158 = ORIENTED_EDGE ( 'NONE', *, *, #113, .F. ) ;
#159 = DIRECTION ( 'NONE',  ( 4.299741949002343858E-16, -0.000000000000000000, 1.000000000000000000 ) ) ;
#160 = VECTOR ( 'NONE', #18, 1000.000000000000000 ) ;
#161 = LINE ( 'NONE', #144, #43 ) ;
#162 = APPLICATION_CONTEXT ( 'automotive_design' ) ;
#163 = DIRECTION ( 'NONE',  ( 2.225582156514732720E-16, 0.000000000000000000, 1.000000000000000000 ) ) ;
#164 = DIRECTION ( 'NONE',  ( -1.000000000000000000, 0.000000000000000000, 2.225582156514732720E-16 ) ) ;
#165 = EDGE_CURVE ( 'NONE', #67, #88, #119, .T. ) ;
#166 = MECHANICAL_DESIGN_GEOMETRIC_PRESENTATION_REPRESENTATION (  '', ( #202 ), #175 ) ;
#167 = CARTESIAN_POINT ( 'NONE',  ( 0.000000000000000000, 0.000000000000000000, 0.000000000000000000 ) ) ;
#168 = ORIENTED_EDGE ( 'NONE', *, *, #38, .F. ) ;
#169 = DIRECTION ( 'NONE',  ( -0.5755517983172426799, 0.000000000000000000, 0.8177653254166430408 ) ) ;
#170 = AXIS2_PLACEMENT_3D ( 'NONE', #199, #182, #37 ) ;
#171 = CARTESIAN_POINT ( 'NONE',  ( 34.59243486782585819, 0.000000000000000000, 33.75833604115103270 ) ) ;
#172 = ADVANCED_FACE ( 'NONE', ( #100 ), #209, .F. ) ;
#173 = ORIENTED_EDGE ( 'NONE', *, *, #153, .F. ) ;
#174 = VECTOR ( 'NONE', #1, 1000.000000000000000 ) ;
#175 =( GEOMETRIC_REPRESENTATION_CONTEXT ( 3 ) GLOBAL_UNCERTAINTY_ASSIGNED_CONTEXT ( ( #102 ) ) GLOBAL_UNIT_ASSIGNED_CONTEXT ( ( #134, #83, #19 ) ) REPRESENTATION_CONTEXT ( 'NONE', 'WORKASPACE' ) );
#176 = ORIENTED_EDGE ( 'NONE', *, *, #151, .F. ) ;
#177 = ORIENTED_EDGE ( 'NONE', *, *, #153, .T. ) ;
#178 = CARTESIAN_POINT ( 'NONE',  ( 34.59243486782585819, -321.0000000000000000, 33.75833604115103270 ) ) ;
#179 = PRESENTATION_LAYER_ASSIGNMENT (  '', '', ( #202 ) ) ;
#180 = PRESENTATION_STYLE_ASSIGNMENT (( #125 ) ) ;
#181 = APPLICATION_PROTOCOL_DEFINITION ( 'draft international standard', 'automotive_design', 1998, #225 ) ;
#182 = DIRECTION ( 'NONE',  ( 0.000000000000000000, -1.000000000000000000, 0.000000000000000000 ) ) ;
#183 = CARTESIAN_POINT ( 'NONE',  ( -0.5000000000000109912, -321.0000000000000000, -102.2895814696369570 ) ) ;
#184 = DIRECTION ( 'NONE',  ( 0.5755517983172436791, 0.000000000000000000, -0.8177653254166422636 ) ) ;
#185 = CARTESIAN_POINT ( 'NONE',  ( 57.99999999999999289, 0.000000000000000000, 0.4999999999999874545 ) ) ;
#186 =( NAMED_UNIT ( * ) SI_UNIT ( $, .STERADIAN. ) SOLID_ANGLE_UNIT ( ) );
#187 = FILL_AREA_STYLE_COLOUR ( '', #21 ) ;
#188 = CARTESIAN_POINT ( 'NONE',  ( 57.99999999999999289, -321.0000000000000000, 0.4999999999999874545 ) ) ;
#189 = ADVANCED_BREP_SHAPE_REPRESENTATION ( 'Support Visio 321', ( #24, #80 ), #197 ) ;
#190 = UNCERTAINTY_MEASURE_WITH_UNIT (LENGTH_MEASURE( 1.000000000000000082E-05 ), #66, 'distance_accuracy_value', 'NONE');
#191 = CARTESIAN_POINT ( 'NONE',  ( -52.90845495175487656, -321.0000000000000000, -27.82570637879403463 ) ) ;
#192 = EDGE_LOOP ( 'NONE', ( #54, #139, #107, #235 ) ) ;
#193 = EDGE_LOOP ( 'NONE', ( #214, #158, #33, #16 ) ) ;
#194 = EDGE_CURVE ( 'NONE', #88, #198, #62, .T. ) ;
#195 = EDGE_LOOP ( 'NONE', ( #154, #210, #14, #122, #173 ) ) ;
#196 = VERTEX_POINT ( 'NONE', #188 ) ;
#197 =( GEOMETRIC_REPRESENTATION_CONTEXT ( 3 ) GLOBAL_UNCERTAINTY_ASSIGNED_CONTEXT ( ( #190 ) ) GLOBAL_UNIT_ASSIGNED_CONTEXT ( ( #66, #86, #120 ) ) REPRESENTATION_CONTEXT ( 'NONE', 'WORKASPACE' ) );
#198 = VERTEX_POINT ( 'NONE', #227 ) ;
#199 = CARTESIAN_POINT ( 'NONE',  ( 0.000000000000000000, -321.0000000000000000, 0.000000000000000000 ) ) ;
#200 = CARTESIAN_POINT ( 'NONE',  ( -0.5000000000000109912, 0.000000000000000000, -102.2895814696369570 ) ) ;
#201 = VECTOR ( 'NONE', #79, 1000.000000000000000 ) ;
#202 = STYLED_ITEM ( 'NONE', ( #117 ), #189 ) ;
#203 = EDGE_CURVE ( 'NONE', #196, #48, #206, .T. ) ;
#204 = FACE_OUTER_BOUND ( 'NONE', #192, .T. ) ;
#205 = CARTESIAN_POINT ( 'NONE',  ( -0.4999999999999880651, 0.000000000000000000, 0.5000000000000125455 ) ) ;
#206 = LINE ( 'NONE', #81, #132 ) ;
#207 = FILL_AREA_STYLE ('',( #187 ) ) ;
#208 =( GEOMETRIC_REPRESENTATION_CONTEXT ( 3 ) GLOBAL_UNCERTAINTY_ASSIGNED_CONTEXT ( ( #85 ) ) GLOBAL_UNIT_ASSIGNED_CONTEXT ( ( #99, #115, #186 ) ) REPRESENTATION_CONTEXT ( 'NONE', 'WORKASPACE' ) );
#209 = PLANE ( 'NONE',  #76 ) ;
#210 = ORIENTED_EDGE ( 'NONE', *, *, #12, .F. ) ;
#211 = VERTEX_POINT ( 'NONE', #205 ) ;
#212 = VECTOR ( 'NONE', #140, 1000.000000000000000 ) ;
#213 = EDGE_CURVE ( 'NONE', #90, #211, #44, .T. ) ;
#214 = ORIENTED_EDGE ( 'NONE', *, *, #221, .T. ) ;
#215 = DIRECTION ( 'NONE',  ( 0.8177653254166422636, -0.000000000000000000, 0.5755517983172436791 ) ) ;
#216 = VERTEX_POINT ( 'NONE', #171 ) ;
#217 = CARTESIAN_POINT ( 'NONE',  ( 34.59243486782585819, -321.0000000000000000, 33.75833604115103270 ) ) ;
#218 = DIRECTION ( 'NONE',  ( 2.225582156514732720E-16, 0.000000000000000000, 1.000000000000000000 ) ) ;
#219 = PRODUCT ( 'Support Visio 321', 'Support Visio 321', '', ( #17 ) ) ;
#220 = CARTESIAN_POINT ( 'NONE',  ( -0.5000000000000109912, -321.0000000000000000, -102.2895814696369570 ) ) ;
#221 = EDGE_CURVE ( 'NONE', #48, #216, #149, .T. ) ;
#222 = DIRECTION ( 'NONE',  ( 0.000000000000000000, 1.000000000000000000, 0.000000000000000000 ) ) ;
#223 = FACE_OUTER_BOUND ( 'NONE', #53, .T. ) ;
#224 = APPLICATION_PROTOCOL_DEFINITION ( 'draft international standard', 'automotive_design', 1998, #162 ) ;
#225 = APPLICATION_CONTEXT ( 'automotive_design' ) ;
#226 = DIRECTION ( 'NONE',  ( 0.000000000000000000, -0.000000000000000000, -1.000000000000000000 ) ) ;
#227 = CARTESIAN_POINT ( 'NONE',  ( -0.5000000000000109912, 0.000000000000000000, -102.2895814696369570 ) ) ;
#228 = VERTEX_POINT ( 'NONE', #7 ) ;
#229 = AXIS2_PLACEMENT_3D ( 'NONE', #217, #57, #56 ) ;
#230 = ORIENTED_EDGE ( 'NONE', *, *, #5, .F. ) ;
#231 = ORIENTED_EDGE ( 'NONE', *, *, #165, .F. ) ;
#232 = CARTESIAN_POINT ( 'NONE',  ( -52.90845495175487656, -321.0000000000000000, -27.82570637879403463 ) ) ;
#233 = DIRECTION ( 'NONE',  ( -0.8177653254166423746, 0.000000000000000000, -0.5755517983172436791 ) ) ;
#234 = SHAPE_DEFINITION_REPRESENTATION ( #61, #189 ) ;
#235 = ORIENTED_EDGE ( 'NONE', *, *, #194, .T. ) ;
ENDSEC;
END-ISO-10303-21;
