ISO-10303-21;
HEADER;
FILE_DESCRIPTION(('FreeCAD Model'),'2;1');
FILE_NAME('Open CASCADE Shape Model','2024-06-17T18:21:26',(''),(''),
  'Open CASCADE STEP processor 7.6','FreeCAD','Unknown');
FILE_SCHEMA(('AUTOMOTIVE_DESIGN { 1 0 10303 214 1 1 1 1 }'));
ENDSEC;
DATA;
#1 = APPLICATION_PROTOCOL_DEFINITION('international standard',
  'automotive_design',2000,#2);
#2 = APPLICATION_CONTEXT(
  'core data for automotive mechanical design processes');
#3 = SHAPE_DEFINITION_REPRESENTATION(#4,#10);
#4 = PRODUCT_DEFINITION_SHAPE('','',#5);
#5 = PRODUCT_DEFINITION('design','',#6,#9);
#6 = PRODUCT_DEFINITION_FORMATION('','',#7);
#7 = PRODUCT('Main body','Main body','',(#8));
#8 = PRODUCT_CONTEXT('',#2,'mechanical');
#9 = PRODUCT_DEFINITION_CONTEXT('part definition',#2,'design');
#10 = ADVANCED_BREP_SHAPE_REPRESENTATION('',(#11,#15),#654);
#11 = AXIS2_PLACEMENT_3D('',#12,#13,#14);
#12 = CARTESIAN_POINT('',(0.,0.,0.));
#13 = DIRECTION('',(0.,0.,1.));
#14 = DIRECTION('',(1.,0.,-0.));
#15 = MANIFOLD_SOLID_BREP('',#16);
#16 = CLOSED_SHELL('',(#17,#86,#119,#145,#171,#222,#262,#295,#320,#350,
    #408,#434,#459,#510,#527,#545,#570,#587,#607,#624,#636));
#17 = ADVANCED_FACE('',(#18,#70),#81,.T.);
#18 = FACE_BOUND('',#19,.T.);
#19 = EDGE_LOOP('',(#20,#30,#39,#47,#55,#63));
#20 = ORIENTED_EDGE('',*,*,#21,.F.);
#21 = EDGE_CURVE('',#22,#24,#26,.T.);
#22 = VERTEX_POINT('',#23);
#23 = CARTESIAN_POINT('',(-10.99818166789,25.,1.));
#24 = VERTEX_POINT('',#25);
#25 = CARTESIAN_POINT('',(-10.99818166789,25.,14.));
#26 = LINE('',#27,#28);
#27 = CARTESIAN_POINT('',(-10.99818166789,25.,0.));
#28 = VECTOR('',#29,1.);
#29 = DIRECTION('',(0.,0.,1.));
#30 = ORIENTED_EDGE('',*,*,#31,.T.);
#31 = EDGE_CURVE('',#22,#32,#34,.T.);
#32 = VERTEX_POINT('',#33);
#33 = CARTESIAN_POINT('',(-12.00666481584,25.,0.));
#34 = HYPERBOLA('',#35,1.5,1.5);
#35 = AXIS2_PLACEMENT_3D('',#36,#37,#38);
#36 = CARTESIAN_POINT('',(0.,25.,12.1));
#37 = DIRECTION('',(0.,1.,0.));
#38 = DIRECTION('',(0.,0.,-1.));
#39 = ORIENTED_EDGE('',*,*,#40,.F.);
#40 = EDGE_CURVE('',#41,#32,#43,.T.);
#41 = VERTEX_POINT('',#42);
#42 = CARTESIAN_POINT('',(-30.,25.,0.));
#43 = LINE('',#44,#45);
#44 = CARTESIAN_POINT('',(-30.,25.,0.));
#45 = VECTOR('',#46,1.);
#46 = DIRECTION('',(1.,0.,0.));
#47 = ORIENTED_EDGE('',*,*,#48,.T.);
#48 = EDGE_CURVE('',#41,#49,#51,.T.);
#49 = VERTEX_POINT('',#50);
#50 = CARTESIAN_POINT('',(-30.,25.,15.));
#51 = LINE('',#52,#53);
#52 = CARTESIAN_POINT('',(-30.,25.,0.));
#53 = VECTOR('',#54,1.);
#54 = DIRECTION('',(0.,0.,1.));
#55 = ORIENTED_EDGE('',*,*,#56,.T.);
#56 = EDGE_CURVE('',#49,#57,#59,.T.);
#57 = VERTEX_POINT('',#58);
#58 = CARTESIAN_POINT('',(-12.00666481584,25.,15.));
#59 = LINE('',#60,#61);
#60 = CARTESIAN_POINT('',(-30.,25.,15.));
#61 = VECTOR('',#62,1.);
#62 = DIRECTION('',(1.,0.,0.));
#63 = ORIENTED_EDGE('',*,*,#64,.F.);
#64 = EDGE_CURVE('',#24,#57,#65,.T.);
#65 = HYPERBOLA('',#66,1.5,1.5);
#66 = AXIS2_PLACEMENT_3D('',#67,#68,#69);
#67 = CARTESIAN_POINT('',(0.,25.,2.9));
#68 = DIRECTION('',(0.,-1.,0.));
#69 = DIRECTION('',(0.,0.,1.));
#70 = FACE_BOUND('',#71,.T.);
#71 = EDGE_LOOP('',(#72));
#72 = ORIENTED_EDGE('',*,*,#73,.F.);
#73 = EDGE_CURVE('',#74,#74,#76,.T.);
#74 = VERTEX_POINT('',#75);
#75 = CARTESIAN_POINT('',(-19.5,25.,7.5));
#76 = CIRCLE('',#77,2.5);
#77 = AXIS2_PLACEMENT_3D('',#78,#79,#80);
#78 = CARTESIAN_POINT('',(-22.,25.,7.5));
#79 = DIRECTION('',(0.,1.,-2.2E-16));
#80 = DIRECTION('',(1.,0.,0.));
#81 = PLANE('',#82);
#82 = AXIS2_PLACEMENT_3D('',#83,#84,#85);
#83 = CARTESIAN_POINT('',(-30.,25.,0.));
#84 = DIRECTION('',(0.,1.,0.));
#85 = DIRECTION('',(1.,0.,0.));
#86 = ADVANCED_FACE('',(#87),#114,.F.);
#87 = FACE_BOUND('',#88,.T.);
#88 = EDGE_LOOP('',(#89,#90,#99,#107));
#89 = ORIENTED_EDGE('',*,*,#21,.T.);
#90 = ORIENTED_EDGE('',*,*,#91,.T.);
#91 = EDGE_CURVE('',#24,#92,#94,.T.);
#92 = VERTEX_POINT('',#93);
#93 = CARTESIAN_POINT('',(10.998181667894,25.,14.));
#94 = CIRCLE('',#95,11.1);
#95 = AXIS2_PLACEMENT_3D('',#96,#97,#98);
#96 = CARTESIAN_POINT('',(0.,26.5,14.));
#97 = DIRECTION('',(0.,0.,1.));
#98 = DIRECTION('',(-0.990827177288,-0.135135135135,0.));
#99 = ORIENTED_EDGE('',*,*,#100,.F.);
#100 = EDGE_CURVE('',#101,#92,#103,.T.);
#101 = VERTEX_POINT('',#102);
#102 = CARTESIAN_POINT('',(10.998181667894,25.,1.));
#103 = LINE('',#104,#105);
#104 = CARTESIAN_POINT('',(10.998181667894,25.,0.));
#105 = VECTOR('',#106,1.);
#106 = DIRECTION('',(0.,0.,1.));
#107 = ORIENTED_EDGE('',*,*,#108,.F.);
#108 = EDGE_CURVE('',#22,#101,#109,.T.);
#109 = CIRCLE('',#110,11.1);
#110 = AXIS2_PLACEMENT_3D('',#111,#112,#113);
#111 = CARTESIAN_POINT('',(0.,26.5,1.));
#112 = DIRECTION('',(0.,0.,1.));
#113 = DIRECTION('',(-0.990827177288,-0.135135135135,0.));
#114 = CYLINDRICAL_SURFACE('',#115,11.1);
#115 = AXIS2_PLACEMENT_3D('',#116,#117,#118);
#116 = CARTESIAN_POINT('',(0.,26.5,0.));
#117 = DIRECTION('',(-0.,-0.,-1.));
#118 = DIRECTION('',(1.,0.,0.));
#119 = ADVANCED_FACE('',(#120),#140,.F.);
#120 = FACE_BOUND('',#121,.T.);
#121 = EDGE_LOOP('',(#122,#123,#124,#133));
#122 = ORIENTED_EDGE('',*,*,#31,.F.);
#123 = ORIENTED_EDGE('',*,*,#108,.T.);
#124 = ORIENTED_EDGE('',*,*,#125,.T.);
#125 = EDGE_CURVE('',#101,#126,#128,.T.);
#126 = VERTEX_POINT('',#127);
#127 = CARTESIAN_POINT('',(12.006664815843,25.,0.));
#128 = HYPERBOLA('',#129,1.5,1.5);
#129 = AXIS2_PLACEMENT_3D('',#130,#131,#132);
#130 = CARTESIAN_POINT('',(0.,25.,12.1));
#131 = DIRECTION('',(0.,-1.,0.));
#132 = DIRECTION('',(0.,0.,-1.));
#133 = ORIENTED_EDGE('',*,*,#134,.F.);
#134 = EDGE_CURVE('',#32,#126,#135,.T.);
#135 = CIRCLE('',#136,12.1);
#136 = AXIS2_PLACEMENT_3D('',#137,#138,#139);
#137 = CARTESIAN_POINT('',(0.,26.5,0.));
#138 = DIRECTION('',(0.,0.,1.));
#139 = DIRECTION('',(-0.990827177288,-0.135135135135,0.));
#140 = CONICAL_SURFACE('',#141,11.1,0.785398163397);
#141 = AXIS2_PLACEMENT_3D('',#142,#143,#144);
#142 = CARTESIAN_POINT('',(0.,26.5,1.));
#143 = DIRECTION('',(-0.,-0.,-1.));
#144 = DIRECTION('',(-0.990827177288,-0.135135135135,0.));
#145 = ADVANCED_FACE('',(#146),#166,.F.);
#146 = FACE_BOUND('',#147,.F.);
#147 = EDGE_LOOP('',(#148,#149,#150,#159));
#148 = ORIENTED_EDGE('',*,*,#64,.F.);
#149 = ORIENTED_EDGE('',*,*,#91,.T.);
#150 = ORIENTED_EDGE('',*,*,#151,.T.);
#151 = EDGE_CURVE('',#92,#152,#154,.T.);
#152 = VERTEX_POINT('',#153);
#153 = CARTESIAN_POINT('',(12.006664815843,25.,15.));
#154 = HYPERBOLA('',#155,1.5,1.5);
#155 = AXIS2_PLACEMENT_3D('',#156,#157,#158);
#156 = CARTESIAN_POINT('',(0.,25.,2.9));
#157 = DIRECTION('',(0.,1.,0.));
#158 = DIRECTION('',(0.,0.,1.));
#159 = ORIENTED_EDGE('',*,*,#160,.F.);
#160 = EDGE_CURVE('',#57,#152,#161,.T.);
#161 = CIRCLE('',#162,12.1);
#162 = AXIS2_PLACEMENT_3D('',#163,#164,#165);
#163 = CARTESIAN_POINT('',(0.,26.5,15.));
#164 = DIRECTION('',(0.,0.,1.));
#165 = DIRECTION('',(-0.990827177288,-0.135135135135,0.));
#166 = CONICAL_SURFACE('',#167,11.1,0.785398163397);
#167 = AXIS2_PLACEMENT_3D('',#168,#169,#170);
#168 = CARTESIAN_POINT('',(0.,26.5,14.));
#169 = DIRECTION('',(0.,0.,1.));
#170 = DIRECTION('',(-0.990827177288,-0.135135135135,0.));
#171 = ADVANCED_FACE('',(#172,#206),#217,.F.);
#172 = FACE_BOUND('',#173,.F.);
#173 = EDGE_LOOP('',(#174,#175,#183,#191,#199,#205));
#174 = ORIENTED_EDGE('',*,*,#40,.F.);
#175 = ORIENTED_EDGE('',*,*,#176,.F.);
#176 = EDGE_CURVE('',#177,#41,#179,.T.);
#177 = VERTEX_POINT('',#178);
#178 = CARTESIAN_POINT('',(-30.,-25.,0.));
#179 = LINE('',#180,#181);
#180 = CARTESIAN_POINT('',(-30.,-25.,0.));
#181 = VECTOR('',#182,1.);
#182 = DIRECTION('',(0.,1.,0.));
#183 = ORIENTED_EDGE('',*,*,#184,.F.);
#184 = EDGE_CURVE('',#185,#177,#187,.T.);
#185 = VERTEX_POINT('',#186);
#186 = CARTESIAN_POINT('',(30.,-25.,0.));
#187 = LINE('',#188,#189);
#188 = CARTESIAN_POINT('',(30.,-25.,0.));
#189 = VECTOR('',#190,1.);
#190 = DIRECTION('',(-1.,0.,0.));
#191 = ORIENTED_EDGE('',*,*,#192,.F.);
#192 = EDGE_CURVE('',#193,#185,#195,.T.);
#193 = VERTEX_POINT('',#194);
#194 = CARTESIAN_POINT('',(30.,25.,0.));
#195 = LINE('',#196,#197);
#196 = CARTESIAN_POINT('',(30.,25.,0.));
#197 = VECTOR('',#198,1.);
#198 = DIRECTION('',(0.,-1.,0.));
#199 = ORIENTED_EDGE('',*,*,#200,.F.);
#200 = EDGE_CURVE('',#126,#193,#201,.T.);
#201 = LINE('',#202,#203);
#202 = CARTESIAN_POINT('',(10.998181667894,25.,0.));
#203 = VECTOR('',#204,1.);
#204 = DIRECTION('',(1.,0.,0.));
#205 = ORIENTED_EDGE('',*,*,#134,.F.);
#206 = FACE_BOUND('',#207,.F.);
#207 = EDGE_LOOP('',(#208));
#208 = ORIENTED_EDGE('',*,*,#209,.T.);
#209 = EDGE_CURVE('',#210,#210,#212,.T.);
#210 = VERTEX_POINT('',#211);
#211 = CARTESIAN_POINT('',(-3.3,-12.5,0.));
#212 = CIRCLE('',#213,3.3);
#213 = AXIS2_PLACEMENT_3D('',#214,#215,#216);
#214 = CARTESIAN_POINT('',(0.,-12.5,0.));
#215 = DIRECTION('',(0.,0.,-1.));
#216 = DIRECTION('',(-1.,0.,0.));
#217 = PLANE('',#218);
#218 = AXIS2_PLACEMENT_3D('',#219,#220,#221);
#219 = CARTESIAN_POINT('',(0.,0.200541637686,0.));
#220 = DIRECTION('',(0.,0.,1.));
#221 = DIRECTION('',(1.,0.,0.));
#222 = ADVANCED_FACE('',(#223),#257,.T.);
#223 = FACE_BOUND('',#224,.T.);
#224 = EDGE_LOOP('',(#225,#226,#227,#235,#243,#251));
#225 = ORIENTED_EDGE('',*,*,#160,.F.);
#226 = ORIENTED_EDGE('',*,*,#56,.F.);
#227 = ORIENTED_EDGE('',*,*,#228,.F.);
#228 = EDGE_CURVE('',#229,#49,#231,.T.);
#229 = VERTEX_POINT('',#230);
#230 = CARTESIAN_POINT('',(-30.,3.E-15,15.));
#231 = LINE('',#232,#233);
#232 = CARTESIAN_POINT('',(-30.,-25.,15.));
#233 = VECTOR('',#234,1.);
#234 = DIRECTION('',(0.,1.,0.));
#235 = ORIENTED_EDGE('',*,*,#236,.T.);
#236 = EDGE_CURVE('',#229,#237,#239,.T.);
#237 = VERTEX_POINT('',#238);
#238 = CARTESIAN_POINT('',(30.,3.E-15,15.));
#239 = LINE('',#240,#241);
#240 = CARTESIAN_POINT('',(-30.,0.,15.));
#241 = VECTOR('',#242,1.);
#242 = DIRECTION('',(1.,0.,0.));
#243 = ORIENTED_EDGE('',*,*,#244,.F.);
#244 = EDGE_CURVE('',#245,#237,#247,.T.);
#245 = VERTEX_POINT('',#246);
#246 = CARTESIAN_POINT('',(30.,25.,15.));
#247 = LINE('',#248,#249);
#248 = CARTESIAN_POINT('',(30.,25.,15.));
#249 = VECTOR('',#250,1.);
#250 = DIRECTION('',(0.,-1.,0.));
#251 = ORIENTED_EDGE('',*,*,#252,.F.);
#252 = EDGE_CURVE('',#152,#245,#253,.T.);
#253 = LINE('',#254,#255);
#254 = CARTESIAN_POINT('',(10.998181667894,25.,15.));
#255 = VECTOR('',#256,1.);
#256 = DIRECTION('',(1.,0.,0.));
#257 = PLANE('',#258);
#258 = AXIS2_PLACEMENT_3D('',#259,#260,#261);
#259 = CARTESIAN_POINT('',(0.,0.200541637686,15.));
#260 = DIRECTION('',(0.,0.,1.));
#261 = DIRECTION('',(1.,0.,0.));
#262 = ADVANCED_FACE('',(#263),#290,.T.);
#263 = FACE_BOUND('',#264,.T.);
#264 = EDGE_LOOP('',(#265,#266,#274,#282,#288,#289));
#265 = ORIENTED_EDGE('',*,*,#176,.F.);
#266 = ORIENTED_EDGE('',*,*,#267,.T.);
#267 = EDGE_CURVE('',#177,#268,#270,.T.);
#268 = VERTEX_POINT('',#269);
#269 = CARTESIAN_POINT('',(-30.,-25.,7.5));
#270 = LINE('',#271,#272);
#271 = CARTESIAN_POINT('',(-30.,-25.,0.));
#272 = VECTOR('',#273,1.);
#273 = DIRECTION('',(0.,0.,1.));
#274 = ORIENTED_EDGE('',*,*,#275,.T.);
#275 = EDGE_CURVE('',#268,#276,#278,.T.);
#276 = VERTEX_POINT('',#277);
#277 = CARTESIAN_POINT('',(-30.,2.E-15,7.5));
#278 = LINE('',#279,#280);
#279 = CARTESIAN_POINT('',(-30.,-25.,7.5));
#280 = VECTOR('',#281,1.);
#281 = DIRECTION('',(0.,1.,-2.2E-16));
#282 = ORIENTED_EDGE('',*,*,#283,.T.);
#283 = EDGE_CURVE('',#276,#229,#284,.T.);
#284 = LINE('',#285,#286);
#285 = CARTESIAN_POINT('',(-30.,0.,7.5));
#286 = VECTOR('',#287,1.);
#287 = DIRECTION('',(0.,0.,1.));
#288 = ORIENTED_EDGE('',*,*,#228,.T.);
#289 = ORIENTED_EDGE('',*,*,#48,.F.);
#290 = PLANE('',#291);
#291 = AXIS2_PLACEMENT_3D('',#292,#293,#294);
#292 = CARTESIAN_POINT('',(-30.,-25.,0.));
#293 = DIRECTION('',(-1.,0.,0.));
#294 = DIRECTION('',(0.,1.,0.));
#295 = ADVANCED_FACE('',(#296),#315,.F.);
#296 = FACE_BOUND('',#297,.T.);
#297 = EDGE_LOOP('',(#298,#299,#307,#314));
#298 = ORIENTED_EDGE('',*,*,#73,.T.);
#299 = ORIENTED_EDGE('',*,*,#300,.T.);
#300 = EDGE_CURVE('',#74,#301,#303,.T.);
#301 = VERTEX_POINT('',#302);
#302 = CARTESIAN_POINT('',(-19.5,9.,7.5));
#303 = LINE('',#304,#305);
#304 = CARTESIAN_POINT('',(-19.5,25.,7.5));
#305 = VECTOR('',#306,1.);
#306 = DIRECTION('',(-6.E-17,-1.,2.2E-16));
#307 = ORIENTED_EDGE('',*,*,#308,.F.);
#308 = EDGE_CURVE('',#301,#301,#309,.T.);
#309 = CIRCLE('',#310,2.5);
#310 = AXIS2_PLACEMENT_3D('',#311,#312,#313);
#311 = CARTESIAN_POINT('',(-22.,9.,7.5));
#312 = DIRECTION('',(0.,1.,-2.2E-16));
#313 = DIRECTION('',(1.,0.,0.));
#314 = ORIENTED_EDGE('',*,*,#300,.F.);
#315 = CYLINDRICAL_SURFACE('',#316,2.5);
#316 = AXIS2_PLACEMENT_3D('',#317,#318,#319);
#317 = CARTESIAN_POINT('',(-22.,25.,7.5));
#318 = DIRECTION('',(0.,-1.,2.2E-16));
#319 = DIRECTION('',(1.,0.,0.));
#320 = ADVANCED_FACE('',(#321,#334),#345,.T.);
#321 = FACE_BOUND('',#322,.T.);
#322 = EDGE_LOOP('',(#323,#324,#325,#326,#332,#333));
#323 = ORIENTED_EDGE('',*,*,#100,.T.);
#324 = ORIENTED_EDGE('',*,*,#151,.T.);
#325 = ORIENTED_EDGE('',*,*,#252,.T.);
#326 = ORIENTED_EDGE('',*,*,#327,.F.);
#327 = EDGE_CURVE('',#193,#245,#328,.T.);
#328 = LINE('',#329,#330);
#329 = CARTESIAN_POINT('',(30.,25.,0.));
#330 = VECTOR('',#331,1.);
#331 = DIRECTION('',(0.,0.,1.));
#332 = ORIENTED_EDGE('',*,*,#200,.F.);
#333 = ORIENTED_EDGE('',*,*,#125,.F.);
#334 = FACE_BOUND('',#335,.T.);
#335 = EDGE_LOOP('',(#336));
#336 = ORIENTED_EDGE('',*,*,#337,.F.);
#337 = EDGE_CURVE('',#338,#338,#340,.T.);
#338 = VERTEX_POINT('',#339);
#339 = CARTESIAN_POINT('',(24.5,25.,7.5));
#340 = CIRCLE('',#341,2.5);
#341 = AXIS2_PLACEMENT_3D('',#342,#343,#344);
#342 = CARTESIAN_POINT('',(22.,25.,7.5));
#343 = DIRECTION('',(0.,1.,-2.2E-16));
#344 = DIRECTION('',(1.,0.,0.));
#345 = PLANE('',#346);
#346 = AXIS2_PLACEMENT_3D('',#347,#348,#349);
#347 = CARTESIAN_POINT('',(10.998181667894,25.,0.));
#348 = DIRECTION('',(0.,1.,0.));
#349 = DIRECTION('',(1.,0.,0.));
#350 = ADVANCED_FACE('',(#351),#403,.T.);
#351 = FACE_BOUND('',#352,.T.);
#352 = EDGE_LOOP('',(#353,#354,#362,#370,#379,#387,#396,#402));
#353 = ORIENTED_EDGE('',*,*,#184,.F.);
#354 = ORIENTED_EDGE('',*,*,#355,.T.);
#355 = EDGE_CURVE('',#185,#356,#358,.T.);
#356 = VERTEX_POINT('',#357);
#357 = CARTESIAN_POINT('',(30.,-25.,7.5));
#358 = LINE('',#359,#360);
#359 = CARTESIAN_POINT('',(30.,-25.,0.));
#360 = VECTOR('',#361,1.);
#361 = DIRECTION('',(0.,0.,1.));
#362 = ORIENTED_EDGE('',*,*,#363,.F.);
#363 = EDGE_CURVE('',#364,#356,#366,.T.);
#364 = VERTEX_POINT('',#365);
#365 = CARTESIAN_POINT('',(25.5,-25.,7.5));
#366 = LINE('',#367,#368);
#367 = CARTESIAN_POINT('',(25.5,-25.,7.5));
#368 = VECTOR('',#369,1.);
#369 = DIRECTION('',(1.,0.,0.));
#370 = ORIENTED_EDGE('',*,*,#371,.F.);
#371 = EDGE_CURVE('',#372,#364,#374,.T.);
#372 = VERTEX_POINT('',#373);
#373 = CARTESIAN_POINT('',(18.5,-25.,7.5));
#374 = CIRCLE('',#375,3.5);
#375 = AXIS2_PLACEMENT_3D('',#376,#377,#378);
#376 = CARTESIAN_POINT('',(22.,-25.,7.499999999996));
#377 = DIRECTION('',(0.,-1.,0.));
#378 = DIRECTION('',(1.,0.,0.));
#379 = ORIENTED_EDGE('',*,*,#380,.F.);
#380 = EDGE_CURVE('',#381,#372,#383,.T.);
#381 = VERTEX_POINT('',#382);
#382 = CARTESIAN_POINT('',(-18.5,-25.,7.5));
#383 = LINE('',#384,#385);
#384 = CARTESIAN_POINT('',(-18.5,-25.,7.5));
#385 = VECTOR('',#386,1.);
#386 = DIRECTION('',(1.,0.,2.E-17));
#387 = ORIENTED_EDGE('',*,*,#388,.F.);
#388 = EDGE_CURVE('',#389,#381,#391,.T.);
#389 = VERTEX_POINT('',#390);
#390 = CARTESIAN_POINT('',(-25.5,-25.,7.5));
#391 = CIRCLE('',#392,3.5);
#392 = AXIS2_PLACEMENT_3D('',#393,#394,#395);
#393 = CARTESIAN_POINT('',(-22.,-25.,7.5));
#394 = DIRECTION('',(0.,-1.,0.));
#395 = DIRECTION('',(1.,0.,0.));
#396 = ORIENTED_EDGE('',*,*,#397,.F.);
#397 = EDGE_CURVE('',#268,#389,#398,.T.);
#398 = LINE('',#399,#400);
#399 = CARTESIAN_POINT('',(-30.,-25.,7.5));
#400 = VECTOR('',#401,1.);
#401 = DIRECTION('',(1.,0.,0.));
#402 = ORIENTED_EDGE('',*,*,#267,.F.);
#403 = PLANE('',#404);
#404 = AXIS2_PLACEMENT_3D('',#405,#406,#407);
#405 = CARTESIAN_POINT('',(30.,-25.,0.));
#406 = DIRECTION('',(0.,-1.,0.));
#407 = DIRECTION('',(-1.,0.,0.));
#408 = ADVANCED_FACE('',(#409),#429,.T.);
#409 = FACE_BOUND('',#410,.T.);
#410 = EDGE_LOOP('',(#411,#412,#413,#414,#422,#428));
#411 = ORIENTED_EDGE('',*,*,#192,.F.);
#412 = ORIENTED_EDGE('',*,*,#327,.T.);
#413 = ORIENTED_EDGE('',*,*,#244,.T.);
#414 = ORIENTED_EDGE('',*,*,#415,.T.);
#415 = EDGE_CURVE('',#237,#416,#418,.T.);
#416 = VERTEX_POINT('',#417);
#417 = CARTESIAN_POINT('',(30.,2.E-15,7.5));
#418 = LINE('',#419,#420);
#419 = CARTESIAN_POINT('',(30.,0.,15.));
#420 = VECTOR('',#421,1.);
#421 = DIRECTION('',(0.,0.,-1.));
#422 = ORIENTED_EDGE('',*,*,#423,.F.);
#423 = EDGE_CURVE('',#356,#416,#424,.T.);
#424 = LINE('',#425,#426);
#425 = CARTESIAN_POINT('',(30.,-25.,7.5));
#426 = VECTOR('',#427,1.);
#427 = DIRECTION('',(0.,1.,-2.2E-16));
#428 = ORIENTED_EDGE('',*,*,#355,.F.);
#429 = PLANE('',#430);
#430 = AXIS2_PLACEMENT_3D('',#431,#432,#433);
#431 = CARTESIAN_POINT('',(30.,25.,0.));
#432 = DIRECTION('',(1.,0.,0.));
#433 = DIRECTION('',(0.,-1.,0.));
#434 = ADVANCED_FACE('',(#435),#454,.F.);
#435 = FACE_BOUND('',#436,.T.);
#436 = EDGE_LOOP('',(#437,#445,#446,#447));
#437 = ORIENTED_EDGE('',*,*,#438,.F.);
#438 = EDGE_CURVE('',#210,#439,#441,.T.);
#439 = VERTEX_POINT('',#440);
#440 = CARTESIAN_POINT('',(-3.3,-12.5,7.5));
#441 = LINE('',#442,#443);
#442 = CARTESIAN_POINT('',(-3.3,-12.5,0.));
#443 = VECTOR('',#444,1.);
#444 = DIRECTION('',(6.E-17,0.,1.));
#445 = ORIENTED_EDGE('',*,*,#209,.T.);
#446 = ORIENTED_EDGE('',*,*,#438,.T.);
#447 = ORIENTED_EDGE('',*,*,#448,.T.);
#448 = EDGE_CURVE('',#439,#439,#449,.T.);
#449 = CIRCLE('',#450,3.3);
#450 = AXIS2_PLACEMENT_3D('',#451,#452,#453);
#451 = CARTESIAN_POINT('',(0.,-12.5,7.5));
#452 = DIRECTION('',(0.,0.,1.));
#453 = DIRECTION('',(-1.,0.,0.));
#454 = CYLINDRICAL_SURFACE('',#455,3.3);
#455 = AXIS2_PLACEMENT_3D('',#456,#457,#458);
#456 = CARTESIAN_POINT('',(0.,-12.5,0.));
#457 = DIRECTION('',(0.,0.,1.));
#458 = DIRECTION('',(-1.,0.,0.));
#459 = ADVANCED_FACE('',(#460),#505,.F.);
#460 = FACE_BOUND('',#461,.F.);
#461 = EDGE_LOOP('',(#462,#470,#471,#472,#473,#481,#490,#498));
#462 = ORIENTED_EDGE('',*,*,#463,.F.);
#463 = EDGE_CURVE('',#276,#464,#466,.T.);
#464 = VERTEX_POINT('',#465);
#465 = CARTESIAN_POINT('',(-25.5,2.E-15,7.5));
#466 = LINE('',#467,#468);
#467 = CARTESIAN_POINT('',(-30.,0.,7.5));
#468 = VECTOR('',#469,1.);
#469 = DIRECTION('',(1.,0.,0.));
#470 = ORIENTED_EDGE('',*,*,#283,.T.);
#471 = ORIENTED_EDGE('',*,*,#236,.T.);
#472 = ORIENTED_EDGE('',*,*,#415,.T.);
#473 = ORIENTED_EDGE('',*,*,#474,.F.);
#474 = EDGE_CURVE('',#475,#416,#477,.T.);
#475 = VERTEX_POINT('',#476);
#476 = CARTESIAN_POINT('',(25.5,2.E-15,7.5));
#477 = LINE('',#478,#479);
#478 = CARTESIAN_POINT('',(25.5,0.,7.5));
#479 = VECTOR('',#480,1.);
#480 = DIRECTION('',(1.,0.,0.));
#481 = ORIENTED_EDGE('',*,*,#482,.F.);
#482 = EDGE_CURVE('',#483,#475,#485,.T.);
#483 = VERTEX_POINT('',#484);
#484 = CARTESIAN_POINT('',(18.5,2.E-15,7.5));
#485 = CIRCLE('',#486,3.5);
#486 = AXIS2_PLACEMENT_3D('',#487,#488,#489);
#487 = CARTESIAN_POINT('',(22.,0.,7.499999999996));
#488 = DIRECTION('',(0.,-1.,0.));
#489 = DIRECTION('',(1.,0.,0.));
#490 = ORIENTED_EDGE('',*,*,#491,.F.);
#491 = EDGE_CURVE('',#492,#483,#494,.T.);
#492 = VERTEX_POINT('',#493);
#493 = CARTESIAN_POINT('',(-18.5,2.E-15,7.5));
#494 = LINE('',#495,#496);
#495 = CARTESIAN_POINT('',(-18.5,0.,7.5));
#496 = VECTOR('',#497,1.);
#497 = DIRECTION('',(1.,0.,2.E-17));
#498 = ORIENTED_EDGE('',*,*,#499,.F.);
#499 = EDGE_CURVE('',#464,#492,#500,.T.);
#500 = CIRCLE('',#501,3.5);
#501 = AXIS2_PLACEMENT_3D('',#502,#503,#504);
#502 = CARTESIAN_POINT('',(-22.,0.,7.5));
#503 = DIRECTION('',(0.,-1.,0.));
#504 = DIRECTION('',(1.,0.,0.));
#505 = PLANE('',#506);
#506 = AXIS2_PLACEMENT_3D('',#507,#508,#509);
#507 = CARTESIAN_POINT('',(1.1091E-12,0.,10.76630109306));
#508 = DIRECTION('',(0.,1.,-4.2E-16));
#509 = DIRECTION('',(0.,4.2E-16,1.));
#510 = ADVANCED_FACE('',(#511),#522,.F.);
#511 = FACE_BOUND('',#512,.F.);
#512 = EDGE_LOOP('',(#513,#514,#515,#521));
#513 = ORIENTED_EDGE('',*,*,#275,.T.);
#514 = ORIENTED_EDGE('',*,*,#463,.T.);
#515 = ORIENTED_EDGE('',*,*,#516,.F.);
#516 = EDGE_CURVE('',#389,#464,#517,.T.);
#517 = LINE('',#518,#519);
#518 = CARTESIAN_POINT('',(-25.5,-25.,7.5));
#519 = VECTOR('',#520,1.);
#520 = DIRECTION('',(0.,1.,-2.2E-16));
#521 = ORIENTED_EDGE('',*,*,#397,.F.);
#522 = PLANE('',#523);
#523 = AXIS2_PLACEMENT_3D('',#524,#525,#526);
#524 = CARTESIAN_POINT('',(-30.,-25.,7.5));
#525 = DIRECTION('',(0.,-2.2E-16,-1.));
#526 = DIRECTION('',(1.,0.,0.));
#527 = ADVANCED_FACE('',(#528),#540,.F.);
#528 = FACE_BOUND('',#529,.T.);
#529 = EDGE_LOOP('',(#530,#531,#539));
#530 = ORIENTED_EDGE('',*,*,#308,.T.);
#531 = ORIENTED_EDGE('',*,*,#532,.T.);
#532 = EDGE_CURVE('',#301,#533,#535,.T.);
#533 = VERTEX_POINT('',#534);
#534 = CARTESIAN_POINT('',(-22.,7.497848452431,7.5));
#535 = LINE('',#536,#537);
#536 = CARTESIAN_POINT('',(-19.5,9.,7.5));
#537 = VECTOR('',#538,1.);
#538 = DIRECTION('',(-0.857167300702,-0.51503807491,1.1E-16));
#539 = ORIENTED_EDGE('',*,*,#532,.F.);
#540 = CONICAL_SURFACE('',#541,2.5,1.029744258677);
#541 = AXIS2_PLACEMENT_3D('',#542,#543,#544);
#542 = CARTESIAN_POINT('',(-22.,9.,7.5));
#543 = DIRECTION('',(0.,1.,-2.2E-16));
#544 = DIRECTION('',(1.,0.,0.));
#545 = ADVANCED_FACE('',(#546),#565,.F.);
#546 = FACE_BOUND('',#547,.T.);
#547 = EDGE_LOOP('',(#548,#549,#557,#564));
#548 = ORIENTED_EDGE('',*,*,#337,.T.);
#549 = ORIENTED_EDGE('',*,*,#550,.T.);
#550 = EDGE_CURVE('',#338,#551,#553,.T.);
#551 = VERTEX_POINT('',#552);
#552 = CARTESIAN_POINT('',(24.5,9.,7.5));
#553 = LINE('',#554,#555);
#554 = CARTESIAN_POINT('',(24.5,25.,7.5));
#555 = VECTOR('',#556,1.);
#556 = DIRECTION('',(-6.E-17,-1.,2.2E-16));
#557 = ORIENTED_EDGE('',*,*,#558,.F.);
#558 = EDGE_CURVE('',#551,#551,#559,.T.);
#559 = CIRCLE('',#560,2.5);
#560 = AXIS2_PLACEMENT_3D('',#561,#562,#563);
#561 = CARTESIAN_POINT('',(22.,9.,7.5));
#562 = DIRECTION('',(0.,1.,-2.2E-16));
#563 = DIRECTION('',(1.,0.,0.));
#564 = ORIENTED_EDGE('',*,*,#550,.F.);
#565 = CYLINDRICAL_SURFACE('',#566,2.5);
#566 = AXIS2_PLACEMENT_3D('',#567,#568,#569);
#567 = CARTESIAN_POINT('',(22.,25.,7.5));
#568 = DIRECTION('',(0.,-1.,2.2E-16));
#569 = DIRECTION('',(1.,0.,0.));
#570 = ADVANCED_FACE('',(#571),#582,.F.);
#571 = FACE_BOUND('',#572,.F.);
#572 = EDGE_LOOP('',(#573,#574,#575,#581));
#573 = ORIENTED_EDGE('',*,*,#516,.T.);
#574 = ORIENTED_EDGE('',*,*,#499,.T.);
#575 = ORIENTED_EDGE('',*,*,#576,.F.);
#576 = EDGE_CURVE('',#381,#492,#577,.T.);
#577 = LINE('',#578,#579);
#578 = CARTESIAN_POINT('',(-18.5,-25.,7.5));
#579 = VECTOR('',#580,1.);
#580 = DIRECTION('',(0.,1.,-2.2E-16));
#581 = ORIENTED_EDGE('',*,*,#388,.F.);
#582 = CYLINDRICAL_SURFACE('',#583,3.5);
#583 = AXIS2_PLACEMENT_3D('',#584,#585,#586);
#584 = CARTESIAN_POINT('',(-22.,-25.,7.5));
#585 = DIRECTION('',(0.,-1.,2.2E-16));
#586 = DIRECTION('',(1.,0.,0.));
#587 = ADVANCED_FACE('',(#588,#599),#602,.F.);
#588 = FACE_BOUND('',#589,.F.);
#589 = EDGE_LOOP('',(#590,#591,#592,#598));
#590 = ORIENTED_EDGE('',*,*,#576,.T.);
#591 = ORIENTED_EDGE('',*,*,#491,.T.);
#592 = ORIENTED_EDGE('',*,*,#593,.F.);
#593 = EDGE_CURVE('',#372,#483,#594,.T.);
#594 = LINE('',#595,#596);
#595 = CARTESIAN_POINT('',(18.5,-25.,7.5));
#596 = VECTOR('',#597,1.);
#597 = DIRECTION('',(0.,1.,-2.2E-16));
#598 = ORIENTED_EDGE('',*,*,#380,.F.);
#599 = FACE_BOUND('',#600,.F.);
#600 = EDGE_LOOP('',(#601));
#601 = ORIENTED_EDGE('',*,*,#448,.T.);
#602 = PLANE('',#603);
#603 = AXIS2_PLACEMENT_3D('',#604,#605,#606);
#604 = CARTESIAN_POINT('',(-18.5,-25.,7.5));
#605 = DIRECTION('',(2.E-17,-2.2E-16,-1.));
#606 = DIRECTION('',(1.,0.,2.E-17));
#607 = ADVANCED_FACE('',(#608),#619,.F.);
#608 = FACE_BOUND('',#609,.F.);
#609 = EDGE_LOOP('',(#610,#611,#612,#618));
#610 = ORIENTED_EDGE('',*,*,#593,.T.);
#611 = ORIENTED_EDGE('',*,*,#482,.T.);
#612 = ORIENTED_EDGE('',*,*,#613,.F.);
#613 = EDGE_CURVE('',#364,#475,#614,.T.);
#614 = LINE('',#615,#616);
#615 = CARTESIAN_POINT('',(25.5,-25.,7.5));
#616 = VECTOR('',#617,1.);
#617 = DIRECTION('',(0.,1.,-2.2E-16));
#618 = ORIENTED_EDGE('',*,*,#371,.F.);
#619 = CYLINDRICAL_SURFACE('',#620,3.5);
#620 = AXIS2_PLACEMENT_3D('',#621,#622,#623);
#621 = CARTESIAN_POINT('',(22.,-25.,7.499999999996));
#622 = DIRECTION('',(0.,-1.,2.2E-16));
#623 = DIRECTION('',(1.,0.,0.));
#624 = ADVANCED_FACE('',(#625),#631,.F.);
#625 = FACE_BOUND('',#626,.F.);
#626 = EDGE_LOOP('',(#627,#628,#629,#630));
#627 = ORIENTED_EDGE('',*,*,#613,.T.);
#628 = ORIENTED_EDGE('',*,*,#474,.T.);
#629 = ORIENTED_EDGE('',*,*,#423,.F.);
#630 = ORIENTED_EDGE('',*,*,#363,.F.);
#631 = PLANE('',#632);
#632 = AXIS2_PLACEMENT_3D('',#633,#634,#635);
#633 = CARTESIAN_POINT('',(25.5,-25.,7.5));
#634 = DIRECTION('',(0.,-2.2E-16,-1.));
#635 = DIRECTION('',(1.,0.,0.));
#636 = ADVANCED_FACE('',(#637),#649,.F.);
#637 = FACE_BOUND('',#638,.T.);
#638 = EDGE_LOOP('',(#639,#640,#648));
#639 = ORIENTED_EDGE('',*,*,#558,.T.);
#640 = ORIENTED_EDGE('',*,*,#641,.T.);
#641 = EDGE_CURVE('',#551,#642,#644,.T.);
#642 = VERTEX_POINT('',#643);
#643 = CARTESIAN_POINT('',(22.,7.497848452431,7.5));
#644 = LINE('',#645,#646);
#645 = CARTESIAN_POINT('',(24.5,9.,7.5));
#646 = VECTOR('',#647,1.);
#647 = DIRECTION('',(-0.857167300702,-0.51503807491,1.1E-16));
#648 = ORIENTED_EDGE('',*,*,#641,.F.);
#649 = CONICAL_SURFACE('',#650,2.5,1.029744258677);
#650 = AXIS2_PLACEMENT_3D('',#651,#652,#653);
#651 = CARTESIAN_POINT('',(22.,9.,7.5));
#652 = DIRECTION('',(0.,1.,-2.2E-16));
#653 = DIRECTION('',(1.,0.,0.));
#654 = ( GEOMETRIC_REPRESENTATION_CONTEXT(3) 
GLOBAL_UNCERTAINTY_ASSIGNED_CONTEXT((#658)) GLOBAL_UNIT_ASSIGNED_CONTEXT
((#655,#656,#657)) REPRESENTATION_CONTEXT('Context #1',
  '3D Context with UNIT and UNCERTAINTY') );
#655 = ( LENGTH_UNIT() NAMED_UNIT(*) SI_UNIT(.MILLI.,.METRE.) );
#656 = ( NAMED_UNIT(*) PLANE_ANGLE_UNIT() SI_UNIT($,.RADIAN.) );
#657 = ( NAMED_UNIT(*) SI_UNIT($,.STERADIAN.) SOLID_ANGLE_UNIT() );
#658 = UNCERTAINTY_MEASURE_WITH_UNIT(LENGTH_MEASURE(1.E-07),#655,
  'distance_accuracy_value','confusion accuracy');
#659 = PRODUCT_RELATED_PRODUCT_CATEGORY('part',$,(#7));
#660 = MECHANICAL_DESIGN_GEOMETRIC_PRESENTATION_REPRESENTATION('',(#661)
  ,#654);
#661 = STYLED_ITEM('color',(#662),#15);
#662 = PRESENTATION_STYLE_ASSIGNMENT((#663,#669));
#663 = SURFACE_STYLE_USAGE(.BOTH.,#664);
#664 = SURFACE_SIDE_STYLE('',(#665));
#665 = SURFACE_STYLE_FILL_AREA(#666);
#666 = FILL_AREA_STYLE('',(#667));
#667 = FILL_AREA_STYLE_COLOUR('',#668);
#668 = COLOUR_RGB('',0.800000010877,0.800000010877,0.800000010877);
#669 = CURVE_STYLE('',#670,POSITIVE_LENGTH_MEASURE(0.1),#671);
#670 = DRAUGHTING_PRE_DEFINED_CURVE_FONT('continuous');
#671 = COLOUR_RGB('',9.803921802644E-02,9.803921802644E-02,
  9.803921802644E-02);
ENDSEC;
END-ISO-10303-21;
