ISO-10303-21;
HEADER;
FILE_DESCRIPTION(('STEP AP242'),'1');
FILE_NAME('DOUILLE V1.stp','2024-07-22T06:51:09',(' '),(' '),'Spatial InterOp 3D',' ',' ');
FILE_SCHEMA(('AP242_MANAGED_MODEL_BASED_3D_ENGINEERING_MIM_LF  {1 0 10303 442 1 1 4}'));
ENDSEC;
DATA;
#1=MECHANICAL_DESIGN_GEOMETRIC_PRESENTATION_REPRESENTATION(' ',(#16,#17,#18,#19,#20,#21,#22,#23,#24,#25,#26,#27,#28,#29,#30,#31,#32,#33,#34,#35,#36),#6);
#2=PRODUCT_DEFINITION_CONTEXT('',#37,'design');
#3=APPLICATION_PROTOCOL_DEFINITION('INTERNATIONAL STANDARD','ap242_managed_model_based_3d_engineering',2014,#37);
#4=PRODUCT_CATEGORY_RELATIONSHIP('NONE','NONE',#38,#39);
#5=SHAPE_DEFINITION_REPRESENTATION(#40,#41);
#6= (GEOMETRIC_REPRESENTATION_CONTEXT(3)GLOBAL_UNCERTAINTY_ASSIGNED_CONTEXT((#44))GLOBAL_UNIT_ASSIGNED_CONTEXT((#46,#47,#48))REPRESENTATION_CONTEXT('NONE','WORKSPACE'));
#7=PROPERTY_DEFINITION_REPRESENTATION(#50,#51);
#8=GENERAL_PROPERTY_ASSOCIATION('','',#52,#50);
#9=PROPERTY_DEFINITION_REPRESENTATION(#53,#54);
#10=GENERAL_PROPERTY_ASSOCIATION('','',#55,#53);
#11=PROPERTY_DEFINITION_REPRESENTATION(#56,#57);
#12=GENERAL_PROPERTY_ASSOCIATION('','',#58,#56);
#16=STYLED_ITEM('',(#59),#60);
#17=STYLED_ITEM('',(#61),#62);
#18=STYLED_ITEM('',(#63),#64);
#19=STYLED_ITEM('',(#65),#66);
#20=STYLED_ITEM('',(#67),#68);
#21=STYLED_ITEM('',(#69),#70);
#22=STYLED_ITEM('',(#71),#72);
#23=STYLED_ITEM('',(#73),#74);
#24=STYLED_ITEM('',(#75),#76);
#25=STYLED_ITEM('',(#77),#78);
#26=STYLED_ITEM('',(#79),#80);
#27=STYLED_ITEM('',(#81),#82);
#28=STYLED_ITEM('',(#83),#84);
#29=STYLED_ITEM('',(#85),#86);
#30=STYLED_ITEM('',(#87),#88);
#31=STYLED_ITEM('',(#89),#90);
#32=STYLED_ITEM('',(#91),#92);
#33=STYLED_ITEM('',(#93),#94);
#34=STYLED_ITEM('',(#95),#96);
#35=STYLED_ITEM('',(#97),#98);
#36=STYLED_ITEM('',(#99),#100);
#37=APPLICATION_CONTEXT('managed model based 3d engineering');
#38=PRODUCT_CATEGORY('part','NONE');
#39=PRODUCT_RELATED_PRODUCT_CATEGORY('detail',' ',(#101));
#40=PRODUCT_DEFINITION_SHAPE('NONE','NONE',#102);
#41=ADVANCED_BREP_SHAPE_REPRESENTATION('DOUILLE V1',(#100,#103),#6);
#44=UNCERTAINTY_MEASURE_WITH_UNIT(LENGTH_MEASURE(0.001),#46,'','');
#46= (CONVERSION_BASED_UNIT('MILLIMETRE',#106)LENGTH_UNIT()NAMED_UNIT(#109));
#47= (NAMED_UNIT(#111)PLANE_ANGLE_UNIT()SI_UNIT($,.RADIAN.));
#48= (NAMED_UNIT(#111)SOLID_ANGLE_UNIT()SI_UNIT($,.STERADIAN.));
#50=PROPERTY_DEFINITION('PdmObjectId','',#102);
#51=REPRESENTATION('',(#117),#6);
#52=GENERAL_PROPERTY('','PdmObjectId','');
#53=PROPERTY_DEFINITION('CreationDate','',#102);
#54=REPRESENTATION('',(#118),#6);
#55=GENERAL_PROPERTY('','CreationDate','');
#56=PROPERTY_DEFINITION('Minor Revision','',#102);
#57=REPRESENTATION('',(#119),#6);
#58=GENERAL_PROPERTY('','Minor Revision','');
#59=PRESENTATION_STYLE_ASSIGNMENT((#120));
#60=ADVANCED_FACE('',(#121,#122),#123,.F.);
#61=PRESENTATION_STYLE_ASSIGNMENT((#124));
#62=ADVANCED_FACE('',(#125,#126),#127,.F.);
#63=PRESENTATION_STYLE_ASSIGNMENT((#128));
#64=ADVANCED_FACE('',(#129,#130),#131,.F.);
#65=PRESENTATION_STYLE_ASSIGNMENT((#132));
#66=ADVANCED_FACE('',(#133,#134),#135,.F.);
#67=PRESENTATION_STYLE_ASSIGNMENT((#136));
#68=ADVANCED_FACE('',(#137,#138),#139,.F.);
#69=PRESENTATION_STYLE_ASSIGNMENT((#140));
#70=ADVANCED_FACE('',(#141,#142,#143,#144,#145,#146),#147,.T.);
#71=PRESENTATION_STYLE_ASSIGNMENT((#148));
#72=ADVANCED_FACE('',(#149,#150),#151,.F.);
#73=PRESENTATION_STYLE_ASSIGNMENT((#152));
#74=ADVANCED_FACE('',(#153,#154),#155,.F.);
#75=PRESENTATION_STYLE_ASSIGNMENT((#156));
#76=ADVANCED_FACE('',(#157,#158),#159,.F.);
#77=PRESENTATION_STYLE_ASSIGNMENT((#160));
#78=ADVANCED_FACE('',(#161),#162,.T.);
#79=PRESENTATION_STYLE_ASSIGNMENT((#163));
#80=ADVANCED_FACE('',(#164),#165,.T.);
#81=PRESENTATION_STYLE_ASSIGNMENT((#166));
#82=ADVANCED_FACE('',(#167),#168,.T.);
#83=PRESENTATION_STYLE_ASSIGNMENT((#169));
#84=ADVANCED_FACE('',(#170,#171,#172,#173,#174,#175),#176,.F.);
#85=PRESENTATION_STYLE_ASSIGNMENT((#177));
#86=ADVANCED_FACE('',(#178,#179),#180,.T.);
#87=PRESENTATION_STYLE_ASSIGNMENT((#181));
#88=ADVANCED_FACE('',(#182,#183),#184,.T.);
#89=PRESENTATION_STYLE_ASSIGNMENT((#185));
#90=ADVANCED_FACE('',(#186,#187),#188,.F.);
#91=PRESENTATION_STYLE_ASSIGNMENT((#189));
#92=ADVANCED_FACE('',(#190,#191),#192,.F.);
#93=PRESENTATION_STYLE_ASSIGNMENT((#193));
#94=ADVANCED_FACE('',(#194,#195),#196,.F.);
#95=PRESENTATION_STYLE_ASSIGNMENT((#197));
#96=ADVANCED_FACE('',(#198),#199,.F.);
#97=PRESENTATION_STYLE_ASSIGNMENT((#200));
#98=ADVANCED_FACE('',(#201,#202),#203,.F.);
#99=PRESENTATION_STYLE_ASSIGNMENT((#204));
#100=MANIFOLD_SOLID_BREP('DOUILLE V1',#205);
#101=PRODUCT('DOUILLE V1','Part 1','Part 1',(#206));
#102=PRODUCT_DEFINITION('','NONE',#207,#2);
#103=AXIS2_PLACEMENT_3D('',#208,#209,#210);
#106=LENGTH_MEASURE_WITH_UNIT(LENGTH_MEASURE(1.0),#211);
#109=DIMENSIONAL_EXPONENTS(1.0,0.0,0.0,0.0,0.0,0.0,0.0);
#111=DIMENSIONAL_EXPONENTS(0.0,0.0,0.0,0.0,0.0,0.0,0.0);
#117=DESCRIPTIVE_REPRESENTATION_ITEM('','19_37db8a9c-45ea-43a4-a20b-5e0a2ffc0ebc&2_172_0_3');
#118=DESCRIPTIVE_REPRESENTATION_ITEM('','19/07/2024 16:01:45');
#119=DESCRIPTIVE_REPRESENTATION_ITEM('','0');
#120=SURFACE_STYLE_USAGE(.BOTH.,#212);
#121=FACE_OUTER_BOUND('',#213,.T.);
#122=FACE_BOUND('',#214,.T.);
#123=CONICAL_SURFACE('',#215,1.75,0.785398163397448);
#124=SURFACE_STYLE_USAGE(.BOTH.,#216);
#125=FACE_OUTER_BOUND('',#217,.T.);
#126=FACE_BOUND('',#218,.T.);
#127=CONICAL_SURFACE('',#219,1.75,0.785398163397448);
#128=SURFACE_STYLE_USAGE(.BOTH.,#220);
#129=FACE_OUTER_BOUND('',#221,.T.);
#130=FACE_BOUND('',#222,.T.);
#131=CONICAL_SURFACE('',#223,1.75,0.785398163397448);
#132=SURFACE_STYLE_USAGE(.BOTH.,#224);
#133=FACE_OUTER_BOUND('',#225,.T.);
#134=FACE_BOUND('',#226,.T.);
#135=CONICAL_SURFACE('',#227,21.85,0.785398163397448);
#136=SURFACE_STYLE_USAGE(.BOTH.,#228);
#137=FACE_BOUND('',#229,.T.);
#138=FACE_OUTER_BOUND('',#230,.T.);
#139=PLANE('',#231);
#140=SURFACE_STYLE_USAGE(.BOTH.,#232);
#141=FACE_OUTER_BOUND('',#233,.T.);
#142=FACE_BOUND('',#234,.T.);
#143=FACE_BOUND('',#235,.T.);
#144=FACE_BOUND('',#236,.T.);
#145=FACE_BOUND('',#237,.T.);
#146=FACE_BOUND('',#238,.T.);
#147=PLANE('',#239);
#148=SURFACE_STYLE_USAGE(.BOTH.,#240);
#149=FACE_OUTER_BOUND('',#241,.T.);
#150=FACE_OUTER_BOUND('',#242,.T.);
#151=CYLINDRICAL_SURFACE('',#243,10.0);
#152=SURFACE_STYLE_USAGE(.BOTH.,#244);
#153=FACE_OUTER_BOUND('',#245,.T.);
#154=FACE_BOUND('',#246,.T.);
#155=CONICAL_SURFACE('',#247,1.75,0.785398163397448);
#156=SURFACE_STYLE_USAGE(.BOTH.,#248);
#157=FACE_OUTER_BOUND('',#249,.T.);
#158=FACE_OUTER_BOUND('',#250,.T.);
#159=CYLINDRICAL_SURFACE('',#251,1.75);
#160=SURFACE_STYLE_USAGE(.BOTH.,#252);
#161=FACE_OUTER_BOUND('',#253,.T.);
#162=CYLINDRICAL_SURFACE('',#254,29.85);
#163=SURFACE_STYLE_USAGE(.BOTH.,#255);
#164=FACE_OUTER_BOUND('',#256,.T.);
#165=PLANE('',#257);
#166=SURFACE_STYLE_USAGE(.BOTH.,#258);
#167=FACE_OUTER_BOUND('',#259,.T.);
#168=CYLINDRICAL_SURFACE('',#260,29.85);
#169=SURFACE_STYLE_USAGE(.BOTH.,#261);
#170=FACE_BOUND('',#262,.T.);
#171=FACE_BOUND('',#263,.T.);
#172=FACE_BOUND('',#264,.T.);
#173=FACE_BOUND('',#265,.T.);
#174=FACE_OUTER_BOUND('',#266,.T.);
#175=FACE_BOUND('',#267,.T.);
#176=PLANE('',#268);
#177=SURFACE_STYLE_USAGE(.BOTH.,#269);
#178=FACE_OUTER_BOUND('',#270,.T.);
#179=FACE_OUTER_BOUND('',#271,.T.);
#180=CYLINDRICAL_SURFACE('',#272,21.5);
#181=SURFACE_STYLE_USAGE(.BOTH.,#273);
#182=FACE_BOUND('',#274,.T.);
#183=FACE_OUTER_BOUND('',#275,.T.);
#184=PLANE('',#276);
#185=SURFACE_STYLE_USAGE(.BOTH.,#277);
#186=FACE_OUTER_BOUND('',#278,.T.);
#187=FACE_OUTER_BOUND('',#279,.T.);
#188=CYLINDRICAL_SURFACE('',#280,1.75);
#189=SURFACE_STYLE_USAGE(.BOTH.,#281);
#190=FACE_OUTER_BOUND('',#282,.T.);
#191=FACE_OUTER_BOUND('',#283,.T.);
#192=CYLINDRICAL_SURFACE('',#284,1.75);
#193=SURFACE_STYLE_USAGE(.BOTH.,#285);
#194=FACE_OUTER_BOUND('',#286,.T.);
#195=FACE_OUTER_BOUND('',#287,.T.);
#196=CYLINDRICAL_SURFACE('',#288,1.75);
#197=SURFACE_STYLE_USAGE(.BOTH.,#289);
#198=FACE_OUTER_BOUND('',#290,.T.);
#199=PLANE('',#291);
#200=SURFACE_STYLE_USAGE(.BOTH.,#292);
#201=FACE_OUTER_BOUND('',#293,.T.);
#202=FACE_OUTER_BOUND('',#294,.T.);
#203=CYLINDRICAL_SURFACE('',#295,19.85);
#204=SURFACE_STYLE_USAGE(.BOTH.,#296);
#205=CLOSED_SHELL('',(#60,#62,#64,#66,#68,#70,#72,#74,#76,#78,#80,#82,#84,#86,#88,#90,#92,#94,#96,#98));
#206=PRODUCT_CONTEXT('',#37,'mechanical');
#207=PRODUCT_DEFINITION_FORMATION_WITH_SPECIFIED_SOURCE('A','NONE',#101,.NOT_KNOWN.);
#208=CARTESIAN_POINT('',(0.0,0.0,0.0));
#209=DIRECTION('',(0.0,0.0,1.0));
#210=DIRECTION('',(1.0,0.0,0.0));
#211= (NAMED_UNIT(#109)LENGTH_UNIT()SI_UNIT(.MILLI.,.METRE.));
#212=SURFACE_SIDE_STYLE('',(#298));
#213=EDGE_LOOP('',(#299));
#214=EDGE_LOOP('',(#300));
#215=AXIS2_PLACEMENT_3D('',#301,#302,#303);
#216=SURFACE_SIDE_STYLE('',(#304));
#217=EDGE_LOOP('',(#305));
#218=EDGE_LOOP('',(#306));
#219=AXIS2_PLACEMENT_3D('',#307,#308,#309);
#220=SURFACE_SIDE_STYLE('',(#310));
#221=EDGE_LOOP('',(#311));
#222=EDGE_LOOP('',(#312));
#223=AXIS2_PLACEMENT_3D('',#313,#314,#315);
#224=SURFACE_SIDE_STYLE('',(#316));
#225=EDGE_LOOP('',(#317));
#226=EDGE_LOOP('',(#318));
#227=AXIS2_PLACEMENT_3D('',#319,#320,#321);
#228=SURFACE_SIDE_STYLE('',(#322));
#229=EDGE_LOOP('',(#323));
#230=EDGE_LOOP('',(#324));
#231=AXIS2_PLACEMENT_3D('',#325,#326,#327);
#232=SURFACE_SIDE_STYLE('',(#328));
#233=EDGE_LOOP('',(#329,#330,#331,#332));
#234=EDGE_LOOP('',(#333));
#235=EDGE_LOOP('',(#334));
#236=EDGE_LOOP('',(#335));
#237=EDGE_LOOP('',(#336));
#238=EDGE_LOOP('',(#337));
#239=AXIS2_PLACEMENT_3D('',#338,#339,#340);
#240=SURFACE_SIDE_STYLE('',(#341));
#241=EDGE_LOOP('',(#342));
#242=EDGE_LOOP('',(#343));
#243=AXIS2_PLACEMENT_3D('',#344,#345,#346);
#244=SURFACE_SIDE_STYLE('',(#347));
#245=EDGE_LOOP('',(#348));
#246=EDGE_LOOP('',(#349));
#247=AXIS2_PLACEMENT_3D('',#350,#351,#352);
#248=SURFACE_SIDE_STYLE('',(#353));
#249=EDGE_LOOP('',(#354));
#250=EDGE_LOOP('',(#355));
#251=AXIS2_PLACEMENT_3D('',#356,#357,#358);
#252=SURFACE_SIDE_STYLE('',(#359));
#253=EDGE_LOOP('',(#360,#361,#362,#363));
#254=AXIS2_PLACEMENT_3D('',#364,#365,#366);
#255=SURFACE_SIDE_STYLE('',(#367));
#256=EDGE_LOOP('',(#368,#369,#370,#371));
#257=AXIS2_PLACEMENT_3D('',#372,#373,#374);
#258=SURFACE_SIDE_STYLE('',(#375));
#259=EDGE_LOOP('',(#376,#377,#378,#379));
#260=AXIS2_PLACEMENT_3D('',#380,#381,#382);
#261=SURFACE_SIDE_STYLE('',(#383));
#262=EDGE_LOOP('',(#384));
#263=EDGE_LOOP('',(#385));
#264=EDGE_LOOP('',(#386));
#265=EDGE_LOOP('',(#387));
#266=EDGE_LOOP('',(#388,#389,#390,#391));
#267=EDGE_LOOP('',(#392));
#268=AXIS2_PLACEMENT_3D('',#393,#394,#395);
#269=SURFACE_SIDE_STYLE('',(#396));
#270=EDGE_LOOP('',(#397));
#271=EDGE_LOOP('',(#398));
#272=AXIS2_PLACEMENT_3D('',#399,#400,#401);
#273=SURFACE_SIDE_STYLE('',(#402));
#274=EDGE_LOOP('',(#403));
#275=EDGE_LOOP('',(#404));
#276=AXIS2_PLACEMENT_3D('',#405,#406,#407);
#277=SURFACE_SIDE_STYLE('',(#408));
#278=EDGE_LOOP('',(#409));
#279=EDGE_LOOP('',(#410));
#280=AXIS2_PLACEMENT_3D('',#411,#412,#413);
#281=SURFACE_SIDE_STYLE('',(#414));
#282=EDGE_LOOP('',(#415));
#283=EDGE_LOOP('',(#416));
#284=AXIS2_PLACEMENT_3D('',#417,#418,#419);
#285=SURFACE_SIDE_STYLE('',(#420));
#286=EDGE_LOOP('',(#421));
#287=EDGE_LOOP('',(#422));
#288=AXIS2_PLACEMENT_3D('',#423,#424,#425);
#289=SURFACE_SIDE_STYLE('',(#426));
#290=EDGE_LOOP('',(#427,#428,#429,#430));
#291=AXIS2_PLACEMENT_3D('',#431,#432,#433);
#292=SURFACE_SIDE_STYLE('',(#434));
#293=EDGE_LOOP('',(#435));
#294=EDGE_LOOP('',(#436));
#295=AXIS2_PLACEMENT_3D('',#437,#438,#439);
#296=SURFACE_SIDE_STYLE('',(#440));
#298=SURFACE_STYLE_FILL_AREA(#441);
#299=ORIENTED_EDGE('',*,*,#442,.F.);
#300=ORIENTED_EDGE('',*,*,#443,.F.);
#301=CARTESIAN_POINT('',(-18.3847763108503,18.3847763108503,1.5));
#302=DIRECTION('',(-0.0,0.0,-1.0));
#303=DIRECTION('',(-1.0,0.0,0.0));
#304=SURFACE_STYLE_FILL_AREA(#444);
#305=ORIENTED_EDGE('',*,*,#445,.F.);
#306=ORIENTED_EDGE('',*,*,#446,.F.);
#307=CARTESIAN_POINT('',(18.3847763108503,18.3847763108503,1.5));
#308=DIRECTION('',(-0.0,0.0,-1.0));
#309=DIRECTION('',(-1.0,0.0,0.0));
#310=SURFACE_STYLE_FILL_AREA(#447);
#311=ORIENTED_EDGE('',*,*,#448,.F.);
#312=ORIENTED_EDGE('',*,*,#449,.F.);
#313=CARTESIAN_POINT('',(-18.3847763108503,-18.3847763108503,1.5));
#314=DIRECTION('',(-0.0,0.0,-1.0));
#315=DIRECTION('',(-1.0,0.0,0.0));
#316=SURFACE_STYLE_FILL_AREA(#450);
#317=ORIENTED_EDGE('',*,*,#451,.F.);
#318=ORIENTED_EDGE('',*,*,#452,.F.);
#319=CARTESIAN_POINT('',(0.0,1.21546194815375E-15,0.0));
#320=DIRECTION('',(-0.0,0.0,-1.0));
#321=DIRECTION('',(-1.0,0.0,0.0));
#322=SURFACE_STYLE_FILL_AREA(#453);
#323=ORIENTED_EDGE('',*,*,#454,.T.);
#324=ORIENTED_EDGE('',*,*,#455,.F.);
#325=CARTESIAN_POINT('',(0.0,0.0,35.0));
#326=DIRECTION('',(0.0,0.0,1.0));
#327=DIRECTION('',(1.0,0.0,0.0));
#328=SURFACE_STYLE_FILL_AREA(#456);
#329=ORIENTED_EDGE('',*,*,#457,.T.);
#330=ORIENTED_EDGE('',*,*,#458,.T.);
#331=ORIENTED_EDGE('',*,*,#459,.F.);
#332=ORIENTED_EDGE('',*,*,#460,.T.);
#333=ORIENTED_EDGE('',*,*,#461,.F.);
#334=ORIENTED_EDGE('',*,*,#462,.F.);
#335=ORIENTED_EDGE('',*,*,#463,.F.);
#336=ORIENTED_EDGE('',*,*,#464,.F.);
#337=ORIENTED_EDGE('',*,*,#465,.F.);
#338=CARTESIAN_POINT('',(0.5,0.0,10.0));
#339=DIRECTION('',(0.0,0.0,1.0));
#340=DIRECTION('',(1.0,0.0,0.0));
#341=SURFACE_STYLE_FILL_AREA(#466);
#342=ORIENTED_EDGE('',*,*,#467,.T.);
#343=ORIENTED_EDGE('',*,*,#454,.F.);
#344=CARTESIAN_POINT('',(0.0,6.12323399573677E-16,35.0));
#345=DIRECTION('',(0.0,0.0,1.0));
#346=DIRECTION('',(1.0,0.0,0.0));
#347=SURFACE_STYLE_FILL_AREA(#468);
#348=ORIENTED_EDGE('',*,*,#469,.F.);
#349=ORIENTED_EDGE('',*,*,#470,.F.);
#350=CARTESIAN_POINT('',(18.3847763108503,-18.3847763108503,1.5));
#351=DIRECTION('',(-0.0,0.0,-1.0));
#352=DIRECTION('',(-1.0,0.0,0.0));
#353=SURFACE_STYLE_FILL_AREA(#471);
#354=ORIENTED_EDGE('',*,*,#470,.T.);
#355=ORIENTED_EDGE('',*,*,#463,.T.);
#356=CARTESIAN_POINT('',(18.3847763108503,-18.3847763108503,0.0));
#357=DIRECTION('',(0.0,0.0,1.0));
#358=DIRECTION('',(-1.0,0.0,0.0));
#359=SURFACE_STYLE_FILL_AREA(#472);
#360=ORIENTED_EDGE('',*,*,#473,.T.);
#361=ORIENTED_EDGE('',*,*,#474,.F.);
#362=ORIENTED_EDGE('',*,*,#460,.F.);
#363=ORIENTED_EDGE('',*,*,#475,.T.);
#364=CARTESIAN_POINT('',(-6.93889390390723E-15,-3.46944695195361E-15,10.0));
#365=DIRECTION('',(0.0,0.0,-1.0));
#366=DIRECTION('',(-1.0,0.0,0.0));
#367=SURFACE_STYLE_FILL_AREA(#476);
#368=ORIENTED_EDGE('',*,*,#477,.F.);
#369=ORIENTED_EDGE('',*,*,#475,.F.);
#370=ORIENTED_EDGE('',*,*,#459,.T.);
#371=ORIENTED_EDGE('',*,*,#478,.T.);
#372=CARTESIAN_POINT('',(24.0,-1.7347234759768E-15,10.0));
#373=DIRECTION('',(1.0,0.0,0.0));
#374=DIRECTION('',(0.0,1.0,0.0));
#375=SURFACE_STYLE_FILL_AREA(#479);
#376=ORIENTED_EDGE('',*,*,#480,.T.);
#377=ORIENTED_EDGE('',*,*,#478,.F.);
#378=ORIENTED_EDGE('',*,*,#458,.F.);
#379=ORIENTED_EDGE('',*,*,#481,.T.);
#380=CARTESIAN_POINT('',(-6.93889390390723E-15,-1.7347234759768E-15,10.0));
#381=DIRECTION('',(0.0,0.0,-1.0));
#382=DIRECTION('',(-1.0,0.0,0.0));
#383=SURFACE_STYLE_FILL_AREA(#482);
#384=ORIENTED_EDGE('',*,*,#469,.T.);
#385=ORIENTED_EDGE('',*,*,#448,.T.);
#386=ORIENTED_EDGE('',*,*,#442,.T.);
#387=ORIENTED_EDGE('',*,*,#445,.T.);
#388=ORIENTED_EDGE('',*,*,#483,.F.);
#389=ORIENTED_EDGE('',*,*,#473,.F.);
#390=ORIENTED_EDGE('',*,*,#477,.T.);
#391=ORIENTED_EDGE('',*,*,#480,.F.);
#392=ORIENTED_EDGE('',*,*,#451,.T.);
#393=CARTESIAN_POINT('',(0.5,0.0,0.0));
#394=DIRECTION('',(0.0,0.0,1.0));
#395=DIRECTION('',(1.0,0.0,0.0));
#396=SURFACE_STYLE_FILL_AREA(#484);
#397=ORIENTED_EDGE('',*,*,#461,.T.);
#398=ORIENTED_EDGE('',*,*,#485,.F.);
#399=CARTESIAN_POINT('',(0.0,1.3164953090834E-15,40.0));
#400=DIRECTION('',(0.0,0.0,-1.0));
#401=DIRECTION('',(-1.0,0.0,0.0));
#402=SURFACE_STYLE_FILL_AREA(#486);
#403=ORIENTED_EDGE('',*,*,#467,.F.);
#404=ORIENTED_EDGE('',*,*,#485,.T.);
#405=CARTESIAN_POINT('',(0.5,0.0,40.0));
#406=DIRECTION('',(0.0,0.0,1.0));
#407=DIRECTION('',(1.0,0.0,0.0));
#408=SURFACE_STYLE_FILL_AREA(#487);
#409=ORIENTED_EDGE('',*,*,#443,.T.);
#410=ORIENTED_EDGE('',*,*,#465,.T.);
#411=CARTESIAN_POINT('',(-18.3847763108503,18.3847763108503,0.0));
#412=DIRECTION('',(0.0,0.0,1.0));
#413=DIRECTION('',(-1.0,0.0,0.0));
#414=SURFACE_STYLE_FILL_AREA(#488);
#415=ORIENTED_EDGE('',*,*,#446,.T.);
#416=ORIENTED_EDGE('',*,*,#464,.T.);
#417=CARTESIAN_POINT('',(18.3847763108503,18.3847763108503,0.0));
#418=DIRECTION('',(0.0,0.0,1.0));
#419=DIRECTION('',(-1.0,0.0,0.0));
#420=SURFACE_STYLE_FILL_AREA(#489);
#421=ORIENTED_EDGE('',*,*,#449,.T.);
#422=ORIENTED_EDGE('',*,*,#462,.T.);
#423=CARTESIAN_POINT('',(-18.3847763108503,-18.3847763108503,0.0));
#424=DIRECTION('',(0.0,0.0,1.0));
#425=DIRECTION('',(-1.0,0.0,0.0));
#426=SURFACE_STYLE_FILL_AREA(#490);
#427=ORIENTED_EDGE('',*,*,#483,.T.);
#428=ORIENTED_EDGE('',*,*,#481,.F.);
#429=ORIENTED_EDGE('',*,*,#457,.F.);
#430=ORIENTED_EDGE('',*,*,#474,.T.);
#431=CARTESIAN_POINT('',(-23.0,1.7347234759768E-15,10.0));
#432=DIRECTION('',(1.0,0.0,0.0));
#433=DIRECTION('',(0.0,1.0,0.0));
#434=SURFACE_STYLE_FILL_AREA(#491);
#435=ORIENTED_EDGE('',*,*,#455,.T.);
#436=ORIENTED_EDGE('',*,*,#452,.T.);
#437=CARTESIAN_POINT('',(0.0,1.21546194815375E-15,10.0));
#438=DIRECTION('',(0.0,0.0,-1.0));
#439=DIRECTION('',(-1.0,0.0,0.0));
#440=SURFACE_STYLE_FILL_AREA(#492);
#441=FILL_AREA_STYLE('',(#493));
#442=EDGE_CURVE('',#494,#494,#495,.T.);
#443=EDGE_CURVE('',#496,#496,#497,.F.);
#444=FILL_AREA_STYLE('',(#498));
#445=EDGE_CURVE('',#499,#499,#500,.T.);
#446=EDGE_CURVE('',#501,#501,#502,.F.);
#447=FILL_AREA_STYLE('',(#503));
#448=EDGE_CURVE('',#504,#504,#505,.T.);
#449=EDGE_CURVE('',#506,#506,#507,.F.);
#450=FILL_AREA_STYLE('',(#508));
#451=EDGE_CURVE('',#509,#509,#510,.T.);
#452=EDGE_CURVE('',#511,#511,#512,.T.);
#453=FILL_AREA_STYLE('',(#513));
#454=EDGE_CURVE('',#514,#514,#515,.T.);
#455=EDGE_CURVE('',#516,#516,#517,.T.);
#456=FILL_AREA_STYLE('',(#518));
#457=EDGE_CURVE('',#519,#520,#521,.T.);
#458=EDGE_CURVE('',#520,#522,#523,.T.);
#459=EDGE_CURVE('',#524,#522,#525,.T.);
#460=EDGE_CURVE('',#524,#519,#526,.T.);
#461=EDGE_CURVE('',#527,#527,#528,.T.);
#462=EDGE_CURVE('',#529,#529,#530,.T.);
#463=EDGE_CURVE('',#531,#531,#532,.T.);
#464=EDGE_CURVE('',#533,#533,#534,.T.);
#465=EDGE_CURVE('',#535,#535,#536,.T.);
#466=FILL_AREA_STYLE('',(#537));
#467=EDGE_CURVE('',#538,#538,#539,.T.);
#468=FILL_AREA_STYLE('',(#540));
#469=EDGE_CURVE('',#541,#541,#542,.T.);
#470=EDGE_CURVE('',#543,#543,#544,.F.);
#471=FILL_AREA_STYLE('',(#545));
#472=FILL_AREA_STYLE('',(#546));
#473=EDGE_CURVE('',#547,#548,#549,.T.);
#474=EDGE_CURVE('',#519,#548,#550,.T.);
#475=EDGE_CURVE('',#524,#547,#551,.T.);
#476=FILL_AREA_STYLE('',(#552));
#477=EDGE_CURVE('',#547,#553,#554,.T.);
#478=EDGE_CURVE('',#522,#553,#555,.T.);
#479=FILL_AREA_STYLE('',(#556));
#480=EDGE_CURVE('',#557,#553,#558,.T.);
#481=EDGE_CURVE('',#520,#557,#559,.T.);
#482=FILL_AREA_STYLE('',(#560));
#483=EDGE_CURVE('',#548,#557,#561,.T.);
#484=FILL_AREA_STYLE('',(#562));
#485=EDGE_CURVE('',#563,#563,#564,.T.);
#486=FILL_AREA_STYLE('',(#565));
#487=FILL_AREA_STYLE('',(#566));
#488=FILL_AREA_STYLE('',(#567));
#489=FILL_AREA_STYLE('',(#568));
#490=FILL_AREA_STYLE('',(#569));
#491=FILL_AREA_STYLE('',(#570));
#492=FILL_AREA_STYLE('',(#571));
#493=FILL_AREA_STYLE_COLOUR('',#572);
#494=VERTEX_POINT('',#573);
#495=CIRCLE('',#574,3.25);
#496=VERTEX_POINT('',#575);
#497=CIRCLE('',#576,1.75);
#498=FILL_AREA_STYLE_COLOUR('',#577);
#499=VERTEX_POINT('',#578);
#500=CIRCLE('',#579,3.25);
#501=VERTEX_POINT('',#580);
#502=CIRCLE('',#581,1.75);
#503=FILL_AREA_STYLE_COLOUR('',#582);
#504=VERTEX_POINT('',#583);
#505=CIRCLE('',#584,3.25);
#506=VERTEX_POINT('',#585);
#507=CIRCLE('',#586,1.75);
#508=FILL_AREA_STYLE_COLOUR('',#587);
#509=VERTEX_POINT('',#588);
#510=CIRCLE('',#589,21.85);
#511=VERTEX_POINT('',#590);
#512=CIRCLE('',#591,19.85);
#513=FILL_AREA_STYLE_COLOUR('',#592);
#514=VERTEX_POINT('',#593);
#515=CIRCLE('',#594,10.0);
#516=VERTEX_POINT('',#595);
#517=CIRCLE('',#596,19.85);
#518=FILL_AREA_STYLE_COLOUR('',#597);
#519=VERTEX_POINT('',#598);
#520=VERTEX_POINT('',#599);
#521=LINE('',#600,#601);
#522=VERTEX_POINT('',#602);
#523=CIRCLE('',#603,29.85);
#524=VERTEX_POINT('',#604);
#525=LINE('',#605,#606);
#526=CIRCLE('',#607,29.85);
#527=VERTEX_POINT('',#608);
#528=CIRCLE('',#609,21.5);
#529=VERTEX_POINT('',#610);
#530=CIRCLE('',#611,1.75);
#531=VERTEX_POINT('',#612);
#532=CIRCLE('',#613,1.75);
#533=VERTEX_POINT('',#614);
#534=CIRCLE('',#615,1.75);
#535=VERTEX_POINT('',#616);
#536=CIRCLE('',#617,1.75);
#537=FILL_AREA_STYLE_COLOUR('',#618);
#538=VERTEX_POINT('',#619);
#539=CIRCLE('',#620,10.0);
#540=FILL_AREA_STYLE_COLOUR('',#621);
#541=VERTEX_POINT('',#622);
#542=CIRCLE('',#623,3.25);
#543=VERTEX_POINT('',#624);
#544=CIRCLE('',#625,1.75);
#545=FILL_AREA_STYLE_COLOUR('',#626);
#546=FILL_AREA_STYLE_COLOUR('',#627);
#547=VERTEX_POINT('',#628);
#548=VERTEX_POINT('',#629);
#549=CIRCLE('',#630,29.85);
#550=LINE('',#631,#632);
#551=LINE('',#633,#634);
#552=FILL_AREA_STYLE_COLOUR('',#635);
#553=VERTEX_POINT('',#636);
#554=LINE('',#637,#638);
#555=LINE('',#639,#640);
#556=FILL_AREA_STYLE_COLOUR('',#641);
#557=VERTEX_POINT('',#642);
#558=CIRCLE('',#643,29.85);
#559=LINE('',#644,#645);
#560=FILL_AREA_STYLE_COLOUR('',#646);
#561=LINE('',#647,#648);
#562=FILL_AREA_STYLE_COLOUR('',#649);
#563=VERTEX_POINT('',#650);
#564=CIRCLE('',#651,21.5);
#565=FILL_AREA_STYLE_COLOUR('',#652);
#566=FILL_AREA_STYLE_COLOUR('',#653);
#567=FILL_AREA_STYLE_COLOUR('',#654);
#568=FILL_AREA_STYLE_COLOUR('',#655);
#569=FILL_AREA_STYLE_COLOUR('',#656);
#570=FILL_AREA_STYLE_COLOUR('',#657);
#571=FILL_AREA_STYLE_COLOUR('',#658);
#572=COLOUR_RGB('',0.972549021244049,0.529411792755127,0.00392156885936856);
#573=CARTESIAN_POINT('',(-15.1347763108503,18.3847763108503,0.0));
#574=AXIS2_PLACEMENT_3D('',#659,#660,#661);
#575=CARTESIAN_POINT('',(-16.6347763108503,18.3847763108503,1.5));
#576=AXIS2_PLACEMENT_3D('',#662,#663,#664);
#577=COLOUR_RGB('',0.972549021244049,0.529411792755127,0.00392156885936856);
#578=CARTESIAN_POINT('',(21.6347763108503,18.3847763108503,0.0));
#579=AXIS2_PLACEMENT_3D('',#665,#666,#667);
#580=CARTESIAN_POINT('',(20.1347763108503,18.3847763108503,1.5));
#581=AXIS2_PLACEMENT_3D('',#668,#669,#670);
#582=COLOUR_RGB('',0.972549021244049,0.529411792755127,0.00392156885936856);
#583=CARTESIAN_POINT('',(-15.1347763108503,-18.3847763108503,0.0));
#584=AXIS2_PLACEMENT_3D('',#671,#672,#673);
#585=CARTESIAN_POINT('',(-16.6347763108503,-18.3847763108503,1.5));
#586=AXIS2_PLACEMENT_3D('',#674,#675,#676);
#587=COLOUR_RGB('',0.972549021244049,0.529411792755127,0.00392156885936856);
#588=CARTESIAN_POINT('',(21.85,1.21546194815375E-15,0.0));
#589=AXIS2_PLACEMENT_3D('',#677,#678,#679);
#590=CARTESIAN_POINT('',(19.85,1.21546194815375E-15,2.0));
#591=AXIS2_PLACEMENT_3D('',#680,#681,#682);
#592=COLOUR_RGB('',0.972549021244049,0.529411792755127,0.00392156885936856);
#593=CARTESIAN_POINT('',(10.0,6.12323399573677E-16,35.0));
#594=AXIS2_PLACEMENT_3D('',#683,#684,#685);
#595=CARTESIAN_POINT('',(19.85,1.21546194815375E-15,35.0));
#596=AXIS2_PLACEMENT_3D('',#686,#687,#688);
#597=COLOUR_RGB('',0.972549021244049,0.529411792755127,0.00392156885936856);
#598=CARTESIAN_POINT('',(-23.0,19.0268888681255,10.0));
#599=CARTESIAN_POINT('',(-23.0,-19.0268888681255,10.0));
#600=CARTESIAN_POINT('',(-23.0,1.7347234759768E-15,10.0));
#601=VECTOR('',#689,1.0);
#602=CARTESIAN_POINT('',(24.0,-17.7488732036713,10.0));
#603=AXIS2_PLACEMENT_3D('',#690,#691,#692);
#604=CARTESIAN_POINT('',(24.0,17.7488732036713,10.0));
#605=CARTESIAN_POINT('',(24.0,-1.7347234759768E-15,10.0));
#606=VECTOR('',#693,1.0);
#607=AXIS2_PLACEMENT_3D('',#694,#695,#696);
#608=CARTESIAN_POINT('',(21.5,1.3164953090834E-15,10.0));
#609=AXIS2_PLACEMENT_3D('',#697,#698,#699);
#610=CARTESIAN_POINT('',(-16.6347763108503,-18.3847763108503,10.0));
#611=AXIS2_PLACEMENT_3D('',#700,#701,#702);
#612=CARTESIAN_POINT('',(20.1347763108503,-18.3847763108503,10.0));
#613=AXIS2_PLACEMENT_3D('',#703,#704,#705);
#614=CARTESIAN_POINT('',(20.1347763108503,18.3847763108503,10.0));
#615=AXIS2_PLACEMENT_3D('',#706,#707,#708);
#616=CARTESIAN_POINT('',(-16.6347763108503,18.3847763108503,10.0));
#617=AXIS2_PLACEMENT_3D('',#709,#710,#711);
#618=COLOUR_RGB('',0.972549021244049,0.529411792755127,0.00392156885936856);
#619=CARTESIAN_POINT('',(10.0,6.12323399573677E-16,40.0));
#620=AXIS2_PLACEMENT_3D('',#712,#713,#714);
#621=COLOUR_RGB('',0.972549021244049,0.529411792755127,0.00392156885936856);
#622=CARTESIAN_POINT('',(21.6347763108503,-18.3847763108503,0.0));
#623=AXIS2_PLACEMENT_3D('',#715,#716,#717);
#624=CARTESIAN_POINT('',(20.1347763108503,-18.3847763108503,1.5));
#625=AXIS2_PLACEMENT_3D('',#718,#719,#720);
#626=COLOUR_RGB('',0.972549021244049,0.529411792755127,0.00392156885936856);
#627=COLOUR_RGB('',0.972549021244049,0.529411792755127,0.00392156885936856);
#628=CARTESIAN_POINT('',(24.0,17.7488732036713,0.0));
#629=CARTESIAN_POINT('',(-23.0,19.0268888681255,0.0));
#630=AXIS2_PLACEMENT_3D('',#721,#722,#723);
#631=CARTESIAN_POINT('',(-23.0,19.0268888681255,10.0));
#632=VECTOR('',#724,1.0);
#633=CARTESIAN_POINT('',(24.0,17.7488732036713,10.0));
#634=VECTOR('',#725,1.0);
#635=COLOUR_RGB('',0.972549021244049,0.529411792755127,0.00392156885936856);
#636=CARTESIAN_POINT('',(24.0,-17.7488732036713,0.0));
#637=CARTESIAN_POINT('',(24.0,-1.7347234759768E-15,0.0));
#638=VECTOR('',#726,1.0);
#639=CARTESIAN_POINT('',(24.0,-17.7488732036713,10.0));
#640=VECTOR('',#727,1.0);
#641=COLOUR_RGB('',0.972549021244049,0.529411792755127,0.00392156885936856);
#642=CARTESIAN_POINT('',(-23.0,-19.0268888681255,0.0));
#643=AXIS2_PLACEMENT_3D('',#728,#729,#730);
#644=CARTESIAN_POINT('',(-23.0,-19.0268888681255,10.0));
#645=VECTOR('',#731,1.0);
#646=COLOUR_RGB('',0.972549021244049,0.529411792755127,0.00392156885936856);
#647=CARTESIAN_POINT('',(-23.0,1.7347234759768E-15,0.0));
#648=VECTOR('',#732,1.0);
#649=COLOUR_RGB('',0.972549021244049,0.529411792755127,0.00392156885936856);
#650=CARTESIAN_POINT('',(21.5,1.3164953090834E-15,40.0));
#651=AXIS2_PLACEMENT_3D('',#733,#734,#735);
#652=COLOUR_RGB('',0.972549021244049,0.529411792755127,0.00392156885936856);
#653=COLOUR_RGB('',0.972549021244049,0.529411792755127,0.00392156885936856);
#654=COLOUR_RGB('',0.972549021244049,0.529411792755127,0.00392156885936856);
#655=COLOUR_RGB('',0.972549021244049,0.529411792755127,0.00392156885936856);
#656=COLOUR_RGB('',0.972549021244049,0.529411792755127,0.00392156885936856);
#657=COLOUR_RGB('',0.972549021244049,0.529411792755127,0.00392156885936856);
#658=COLOUR_RGB('',0.972549021244049,0.529411792755127,0.00392156885936856);
#659=CARTESIAN_POINT('',(-18.3847763108503,18.3847763108503,0.0));
#660=DIRECTION('',(0.0,0.0,1.0));
#661=DIRECTION('',(1.0,0.0,0.0));
#662=CARTESIAN_POINT('',(-18.3847763108503,18.3847763108503,1.5));
#663=DIRECTION('',(0.0,0.0,1.0));
#664=DIRECTION('',(1.0,0.0,0.0));
#665=CARTESIAN_POINT('',(18.3847763108503,18.3847763108503,0.0));
#666=DIRECTION('',(0.0,0.0,1.0));
#667=DIRECTION('',(1.0,0.0,0.0));
#668=CARTESIAN_POINT('',(18.3847763108503,18.3847763108503,1.5));
#669=DIRECTION('',(0.0,0.0,1.0));
#670=DIRECTION('',(1.0,0.0,0.0));
#671=CARTESIAN_POINT('',(-18.3847763108503,-18.3847763108503,0.0));
#672=DIRECTION('',(0.0,0.0,1.0));
#673=DIRECTION('',(1.0,0.0,0.0));
#674=CARTESIAN_POINT('',(-18.3847763108503,-18.3847763108503,1.5));
#675=DIRECTION('',(0.0,0.0,1.0));
#676=DIRECTION('',(1.0,0.0,0.0));
#677=CARTESIAN_POINT('',(0.0,1.21546194815375E-15,0.0));
#678=DIRECTION('',(0.0,0.0,1.0));
#679=DIRECTION('',(1.0,0.0,0.0));
#680=CARTESIAN_POINT('',(0.0,1.21546194815375E-15,2.0));
#681=DIRECTION('',(0.0,0.0,-1.0));
#682=DIRECTION('',(1.0,0.0,0.0));
#683=CARTESIAN_POINT('',(0.0,6.12323399573677E-16,35.0));
#684=DIRECTION('',(0.0,0.0,1.0));
#685=DIRECTION('',(1.0,0.0,0.0));
#686=CARTESIAN_POINT('',(0.0,1.21546194815375E-15,35.0));
#687=DIRECTION('',(0.0,0.0,1.0));
#688=DIRECTION('',(1.0,0.0,0.0));
#689=DIRECTION('',(0.0,-1.0,0.0));
#690=CARTESIAN_POINT('',(-6.93889390390723E-15,-1.7347234759768E-15,10.0));
#691=DIRECTION('',(0.0,0.0,1.0));
#692=DIRECTION('',(1.0,0.0,0.0));
#693=DIRECTION('',(0.0,-1.0,0.0));
#694=CARTESIAN_POINT('',(-6.93889390390723E-15,-3.46944695195361E-15,10.0));
#695=DIRECTION('',(0.0,0.0,1.0));
#696=DIRECTION('',(1.0,0.0,0.0));
#697=CARTESIAN_POINT('',(0.0,1.3164953090834E-15,10.0));
#698=DIRECTION('',(0.0,0.0,1.0));
#699=DIRECTION('',(1.0,0.0,0.0));
#700=CARTESIAN_POINT('',(-18.3847763108503,-18.3847763108503,10.0));
#701=DIRECTION('',(0.0,0.0,1.0));
#702=DIRECTION('',(1.0,0.0,0.0));
#703=CARTESIAN_POINT('',(18.3847763108503,-18.3847763108503,10.0));
#704=DIRECTION('',(0.0,0.0,1.0));
#705=DIRECTION('',(1.0,0.0,0.0));
#706=CARTESIAN_POINT('',(18.3847763108503,18.3847763108503,10.0));
#707=DIRECTION('',(0.0,0.0,1.0));
#708=DIRECTION('',(1.0,0.0,0.0));
#709=CARTESIAN_POINT('',(-18.3847763108503,18.3847763108503,10.0));
#710=DIRECTION('',(0.0,0.0,1.0));
#711=DIRECTION('',(1.0,0.0,0.0));
#712=CARTESIAN_POINT('',(0.0,6.12323399573677E-16,40.0));
#713=DIRECTION('',(0.0,0.0,1.0));
#714=DIRECTION('',(1.0,0.0,0.0));
#715=CARTESIAN_POINT('',(18.3847763108503,-18.3847763108503,0.0));
#716=DIRECTION('',(0.0,0.0,1.0));
#717=DIRECTION('',(1.0,0.0,0.0));
#718=CARTESIAN_POINT('',(18.3847763108503,-18.3847763108503,1.5));
#719=DIRECTION('',(0.0,0.0,1.0));
#720=DIRECTION('',(1.0,0.0,0.0));
#721=CARTESIAN_POINT('',(-6.93889390390723E-15,-3.46944695195361E-15,0.0));
#722=DIRECTION('',(0.0,0.0,1.0));
#723=DIRECTION('',(1.0,0.0,0.0));
#724=DIRECTION('',(0.0,0.0,-1.0));
#725=DIRECTION('',(0.0,0.0,-1.0));
#726=DIRECTION('',(0.0,-1.0,0.0));
#727=DIRECTION('',(0.0,0.0,-1.0));
#728=CARTESIAN_POINT('',(-6.93889390390723E-15,-1.7347234759768E-15,0.0));
#729=DIRECTION('',(0.0,0.0,1.0));
#730=DIRECTION('',(1.0,0.0,0.0));
#731=DIRECTION('',(0.0,0.0,-1.0));
#732=DIRECTION('',(0.0,-1.0,0.0));
#733=CARTESIAN_POINT('',(0.0,1.3164953090834E-15,40.0));
#734=DIRECTION('',(0.0,0.0,1.0));
#735=DIRECTION('',(1.0,0.0,0.0));
ENDSEC;
END-ISO-10303-21;
