ISO-10303-21;
HEADER;
FILE_DESCRIPTION (( 'STEP AP203' ),
    '1' );
FILE_NAME ('support sonde EGT 1 8 NPT.STEP',
    '2024-07-21T13:43:38',
    ( '' ),
    ( '' ),
    'SwSTEP 2.0',
    'SolidWorks 2023',
    '' );
FILE_SCHEMA (( 'CONFIG_CONTROL_DESIGN' ));
ENDSEC;

DATA;
#1 = DIRECTION ( 'NONE',  ( 0.000000000000000000, -0.000000000000000000, -1.000000000000000000 ) ) ;
#2 = ORIENTED_EDGE ( 'NONE', *, *, #90, .F. ) ;
#3 = CARTESIAN_POINT ( 'NONE',  ( 9.797174393178823685E-16, 0.000000000000000000, 8.000000000000000000 ) ) ;
#4 = VECTOR ( 'NONE', #117, 1000.000000000000000 ) ;
#5 = VERTEX_POINT ( 'NONE', #220 ) ;
#6 = CARTESIAN_POINT ( 'NONE',  ( 0.000000000000000000, 6.079999999999999183, 0.000000000000000000 ) ) ;
#7 = AXIS2_PLACEMENT_3D ( 'NONE', #291, #165, #267 ) ;
#8 = FACE_OUTER_BOUND ( 'NONE', #327, .T. ) ;
#9 = LINE ( 'NONE', #186, #311 ) ;
#10 = COORDINATED_UNIVERSAL_TIME_OFFSET ( 1, 0, .AHEAD. ) ;
#11 = CARTESIAN_POINT ( 'NONE',  ( 5.163600763924906231E-16, 13.00000000000000000, -4.216400000000004589 ) ) ;
#12 = CARTESIAN_POINT ( 'NONE',  ( 0.000000000000000000, 0.000000000000000000, 0.000000000000000000 ) ) ;
#13 = PERSON_AND_ORGANIZATION ( #41, #131 ) ;
#14 = ADVANCED_FACE ( 'NONE', ( #105, #243 ), #273, .T. ) ;
#15 = DIRECTION ( 'NONE',  ( -0.000000000000000000, 1.000000000000000000, -0.000000000000000000 ) ) ;
#16 = ADVANCED_FACE ( 'NONE', ( #319, #295 ), #246, .F. ) ;
#17 = DIRECTION ( 'NONE',  ( 0.000000000000000000, 0.000000000000000000, -1.000000000000000000 ) ) ;
#18 = DIRECTION ( 'NONE',  ( 1.000000000000000000, 0.000000000000000000, 0.000000000000000000 ) ) ;
#19 = DIRECTION ( 'NONE',  ( -0.000000000000000000, 1.000000000000000000, -0.000000000000000000 ) ) ;
#20 = VECTOR ( 'NONE', #194, 1000.000000000000000 ) ;
#21 = COORDINATED_UNIVERSAL_TIME_OFFSET ( 1, 0, .AHEAD. ) ;
#22 =( NAMED_UNIT ( * ) SI_UNIT ( $, .STERADIAN. ) SOLID_ANGLE_UNIT ( ) );
#23 = ADVANCED_FACE ( 'NONE', ( #28 ), #227, .T. ) ;
#24 = DIRECTION ( 'NONE',  ( 0.000000000000000000, 1.000000000000000000, 0.000000000000000000 ) ) ;
#25 = LOCAL_TIME ( 15, 43, 38.00000000000000000, #10 ) ;
#26 = ORIENTED_EDGE ( 'NONE', *, *, #322, .F. ) ;
#27 = CIRCLE ( 'NONE', #256, 4.216400000000009030 ) ;
#28 = FACE_OUTER_BOUND ( 'NONE', #208, .T. ) ;
#29 = CC_DESIGN_PERSON_AND_ORGANIZATION_ASSIGNMENT ( #247, #150, ( #303 ) ) ;
#30 = APPROVAL ( #225, 'UNSPECIFIED' ) ;
#31 = ORIENTED_EDGE ( 'NONE', *, *, #200, .F. ) ;
#32 = CARTESIAN_POINT ( 'NONE',  ( 0.000000000000000000, 0.000000000000000000, 0.000000000000000000 ) ) ;
#33 = EDGE_LOOP ( 'NONE', ( #31, #88 ) ) ;
#34 = DIRECTION ( 'NONE',  ( -0.000000000000000000, 1.000000000000000000, -0.000000000000000000 ) ) ;
#35 = VERTEX_POINT ( 'NONE', #63 ) ;
#36 = LOCAL_TIME ( 15, 43, 38.00000000000000000, #167 ) ;
#37 = CARTESIAN_POINT ( 'NONE',  ( 0.000000000000000000, 13.00000000000000000, 0.000000000000000000 ) ) ;
#38 = FACE_OUTER_BOUND ( 'NONE', #163, .T. ) ;
#39 = AXIS2_PLACEMENT_3D ( 'NONE', #275, #24, #218 ) ;
#40 = DIRECTION ( 'NONE',  ( 0.000000000000000000, 0.000000000000000000, 1.000000000000000000 ) ) ;
#41 = PERSON ( 'UNSPECIFIED', 'UNSPECIFIED', 'UNSPECIFIED', ('UNSPECIFIED'), ('UNSPECIFIED'), ('UNSPECIFIED') ) ;
#42 = DIRECTION ( 'NONE',  ( 0.000000000000000000, 0.000000000000000000, 1.000000000000000000 ) ) ;
#43 = EDGE_CURVE ( 'NONE', #35, #284, #27, .T. ) ;
#44 = COORDINATED_UNIVERSAL_TIME_OFFSET ( 1, 0, .AHEAD. ) ;
#45 = DIRECTION ( 'NONE',  ( -0.000000000000000000, -1.000000000000000000, -0.000000000000000000 ) ) ;
#46 = DIRECTION ( 'NONE',  ( 0.000000000000000000, 0.000000000000000000, 1.000000000000000000 ) ) ;
#47 = DIRECTION ( 'NONE',  ( 0.000000000000000000, 0.000000000000000000, 1.000000000000000000 ) ) ;
#48 = AXIS2_PLACEMENT_3D ( 'NONE', #151, #19, #128 ) ;
#49 = PERSON_AND_ORGANIZATION ( #41, #131 ) ;
#50 = AXIS2_PLACEMENT_3D ( 'NONE', #113, #310, #215 ) ;
#51 = APPROVAL_STATUS ( 'not_yet_approved' ) ;
#52 = LOCAL_TIME ( 15, 43, 38.00000000000000000, #21 ) ;
#53 = AXIS2_PLACEMENT_3D ( 'NONE', #190, #73, #274 ) ;
#54 = VERTEX_POINT ( 'NONE', #3 ) ;
#55 = CARTESIAN_POINT ( 'NONE',  ( 0.000000000000000000, 13.00000000000000000, 0.000000000000000000 ) ) ;
#56 = ORIENTED_EDGE ( 'NONE', *, *, #154, .F. ) ;
#57 = LINE ( 'NONE', #268, #4 ) ;
#58 = EDGE_LOOP ( 'NONE', ( #257, #282 ) ) ;
#59 = CARTESIAN_POINT ( 'NONE',  ( 5.683580855193214118E-16, 6.079999999999999183, -4.537398932939922247 ) ) ;
#60 = EDGE_LOOP ( 'NONE', ( #214, #312, #112, #137 ) ) ;
#61 = AXIS2_PLACEMENT_3D ( 'NONE', #94, #323, #46 ) ;
#62 = CARTESIAN_POINT ( 'NONE',  ( 0.000000000000000000, 6.080000000000001847, 0.000000000000000000 ) ) ;
#63 = CARTESIAN_POINT ( 'NONE',  ( 5.163600763924912147E-16, 6.080000000000001847, -4.216400000000009030 ) ) ;
#64 = CC_DESIGN_PERSON_AND_ORGANIZATION_ASSIGNMENT ( #296, #244, ( #236 ) ) ;
#65 = CARTESIAN_POINT ( 'NONE',  ( 5.810450630706936777E-16, 13.00000000000000000, -4.744592999999999172 ) ) ;
#66 = PERSON_AND_ORGANIZATION ( #41, #131 ) ;
#67 = CC_DESIGN_APPROVAL ( #228, ( #236 ) ) ;
#68 = CARTESIAN_POINT ( 'NONE',  ( 0.000000000000000000, 6.080000000000001847, 4.216400000000009030 ) ) ;
#69 = AXIS2_PLACEMENT_3D ( 'NONE', #283, #233, #1 ) ;
#70 = DIRECTION ( 'NONE',  ( 0.000000000000000000, 1.000000000000000000, 0.000000000000000000 ) ) ;
#71 = APPROVAL_DATE_TIME ( #173, #204 ) ;
#72 = DIRECTION ( 'NONE',  ( -0.000000000000000000, -1.000000000000000000, -0.000000000000000000 ) ) ;
#73 = DIRECTION ( 'NONE',  ( -0.000000000000000000, 1.000000000000000000, -0.000000000000000000 ) ) ;
#74 = AXIS2_PLACEMENT_3D ( 'NONE', #145, #239, #122 ) ;
#75 = APPROVAL_STATUS ( 'not_yet_approved' ) ;
#76 = APPROVAL_DATE_TIME ( #199, #228 ) ;
#77 = APPLICATION_CONTEXT ( 'configuration controlled 3d designs of mechanical parts and assemblies' ) ;
#78 = EDGE_CURVE ( 'NONE', #308, #84, #89, .T. ) ;
#79 = EDGE_CURVE ( 'NONE', #86, #54, #156, .T. ) ;
#80 = AXIS2_PLACEMENT_3D ( 'NONE', #97, #294, #18 ) ;
#81 = ORIENTED_EDGE ( 'NONE', *, *, #322, .T. ) ;
#82 = EDGE_CURVE ( 'NONE', #111, #86, #57, .T. ) ;
#83 = EDGE_CURVE ( 'NONE', #284, #35, #212, .T. ) ;
#84 = VERTEX_POINT ( 'NONE', #318 ) ;
#85 = PRODUCT ( 'support sonde EGT 1 8 NPT', 'support sonde EGT 1 8 NPT', '', ( #219 ) ) ;
#86 = VERTEX_POINT ( 'NONE', #146 ) ;
#87 = DIRECTION ( 'NONE',  ( 0.000000000000000000, 0.000000000000000000, 1.000000000000000000 ) ) ;
#88 = ORIENTED_EDGE ( 'NONE', *, *, #242, .F. ) ;
#89 = LINE ( 'NONE', #241, #299 ) ;
#90 = EDGE_CURVE ( 'NONE', #109, #255, #9, .T. ) ;
#91 = ORIENTED_EDGE ( 'NONE', *, *, #78, .T. ) ;
#92 = DIRECTION ( 'NONE',  ( 0.000000000000000000, 0.000000000000000000, 1.000000000000000000 ) ) ;
#93 = VECTOR ( 'NONE', #15, 1000.000000000000000 ) ;
#94 = CARTESIAN_POINT ( 'NONE',  ( 0.000000000000000000, 6.079999999999999183, 0.000000000000000000 ) ) ;
#95 = AXIS2_PLACEMENT_3D ( 'NONE', #37, #143, #238 ) ;
#96 = CC_DESIGN_DATE_AND_TIME_ASSIGNMENT ( #177, #321, ( #303 ) ) ;
#97 = CARTESIAN_POINT ( 'NONE',  ( 0.000000000000000000, 0.000000000000000000, 0.000000000000000000 ) ) ;
#98 = APPROVAL_ROLE ( '' ) ;
#99 = DIRECTION ( 'NONE',  ( 0.000000000000000000, 0.000000000000000000, -1.000000000000000000 ) ) ;
#100 = PERSON_AND_ORGANIZATION_ROLE ( 'design_supplier' ) ;
#101 = CARTESIAN_POINT ( 'NONE',  ( 0.000000000000000000, 13.00000000000000000, 0.000000000000000000 ) ) ;
#102 = DESIGN_CONTEXT ( 'detailed design', #77, 'design' ) ;
#103 = CALENDAR_DATE ( 2024, 21, 7 ) ;
#104 = CIRCLE ( 'NONE', #281, 4.744592999999999172 ) ;
#105 = FACE_BOUND ( 'NONE', #33, .T. ) ;
#106 = APPROVAL_DATE_TIME ( #125, #30 ) ;
#107 = ORIENTED_EDGE ( 'NONE', *, *, #82, .T. ) ;
#108 = ADVANCED_FACE ( 'NONE', ( #123 ), #235, .F. ) ;
#109 = VERTEX_POINT ( 'NONE', #59 ) ;
#110 = CIRCLE ( 'NONE', #277, 8.000000000000000000 ) ;
#111 = VERTEX_POINT ( 'NONE', #120 ) ;
#112 = ORIENTED_EDGE ( 'NONE', *, *, #154, .T. ) ;
#113 = CARTESIAN_POINT ( 'NONE',  ( 0.000000000000000000, 0.000000000000000000, 0.000000000000000000 ) ) ;
#114 = EDGE_LOOP ( 'NONE', ( #157, #234 ) ) ;
#115 = CC_DESIGN_APPROVAL ( #30, ( #303 ) ) ;
#116 = AXIS2_PLACEMENT_3D ( 'NONE', #101, #72, #17 ) ;
#117 = DIRECTION ( 'NONE',  ( -0.000000000000000000, -1.000000000000000000, -0.000000000000000000 ) ) ;
#118 = ORIENTED_EDGE ( 'NONE', *, *, #79, .T. ) ;
#119 = ADVANCED_FACE ( 'NONE', ( #262, #8 ), #164, .F. ) ;
#120 = CARTESIAN_POINT ( 'NONE',  ( 0.000000000000000000, 13.00000000000000000, -8.000000000000000000 ) ) ;
#121 = CIRCLE ( 'NONE', #53, 4.744592999999999172 ) ;
#122 = DIRECTION ( 'NONE',  ( 0.000000000000000000, 0.000000000000000000, 1.000000000000000000 ) ) ;
#123 = FACE_OUTER_BOUND ( 'NONE', #140, .T. ) ;
#124 = CALENDAR_DATE ( 2024, 21, 7 ) ;
#125 = DATE_AND_TIME ( #127, #168 ) ;
#126 = FACE_OUTER_BOUND ( 'NONE', #60, .T. ) ;
#127 = CALENDAR_DATE ( 2024, 21, 7 ) ;
#128 = DIRECTION ( 'NONE',  ( 0.000000000000000000, 0.000000000000000000, 1.000000000000000000 ) ) ;
#129 = CLOSED_SHELL ( 'NONE', ( #193, #108, #23, #248, #14, #16, #288, #119, #144 ) ) ;
#130 = CC_DESIGN_DATE_AND_TIME_ASSIGNMENT ( #198, #301, ( #266 ) ) ;
#131 = ORGANIZATION ( 'UNSPECIFIED', 'UNSPECIFIED', '' ) ;
#132 = MANIFOLD_SOLID_BREP ( 'Trou taraudé 1/8 NPT2', #129 ) ;
#133 = AXIS2_PLACEMENT_3D ( 'NONE', #62, #216, #40 ) ;
#134 = EDGE_CURVE ( 'NONE', #5, #182, #326, .T. ) ;
#135 = CIRCLE ( 'NONE', #317, 4.537398932939922247 ) ;
#136 = DIRECTION ( 'NONE',  ( 0.000000000000000000, 1.000000000000000000, 0.000000000000000000 ) ) ;
#137 = ORIENTED_EDGE ( 'NONE', *, *, #83, .T. ) ;
#138 = CC_DESIGN_PERSON_AND_ORGANIZATION_ASSIGNMENT ( #13, #100, ( #236 ) ) ;
#139 = LINE ( 'NONE', #213, #231 ) ;
#140 = EDGE_LOOP ( 'NONE', ( #314, #184, #203, #56 ) ) ;
#141 = CC_DESIGN_APPROVAL ( #204, ( #266 ) ) ;
#142 = EDGE_CURVE ( 'NONE', #111, #263, #110, .T. ) ;
#143 = DIRECTION ( 'NONE',  ( 0.000000000000000000, 1.000000000000000000, 0.000000000000000000 ) ) ;
#144 = ADVANCED_FACE ( 'NONE', ( #183 ), #252, .F. ) ;
#145 = CARTESIAN_POINT ( 'NONE',  ( 0.000000000000000000, 13.00000000000000000, 0.000000000000000000 ) ) ;
#146 = CARTESIAN_POINT ( 'NONE',  ( 0.000000000000000000, 0.000000000000000000, -8.000000000000000000 ) ) ;
#147 = CARTESIAN_POINT ( 'NONE',  ( 0.000000000000000000, 13.00000000000000000, 0.000000000000000000 ) ) ;
#148 = CALENDAR_DATE ( 2024, 21, 7 ) ;
#149 = CARTESIAN_POINT ( 'NONE',  ( 9.797174393178823685E-16, 13.00000000000000000, 8.000000000000000000 ) ) ;
#150 = PERSON_AND_ORGANIZATION_ROLE ( 'creator' ) ;
#151 = CARTESIAN_POINT ( 'NONE',  ( 0.000000000000000000, 13.00000000000000000, 0.000000000000000000 ) ) ;
#152 = APPLICATION_PROTOCOL_DEFINITION ( 'international standard', 'config_control_design', 1994, #77 ) ;
#153 = CIRCLE ( 'NONE', #95, 8.000000000000000000 ) ;
#154 = EDGE_CURVE ( 'NONE', #5, #284, #139, .T. ) ;
#155 = CC_DESIGN_SECURITY_CLASSIFICATION ( #266, ( #236 ) ) ;
#156 = CIRCLE ( 'NONE', #271, 8.000000000000000000 ) ;
#157 = ORIENTED_EDGE ( 'NONE', *, *, #79, .F. ) ;
#158 = CIRCLE ( 'NONE', #7, 4.216400000000000148 ) ;
#159 = EDGE_LOOP ( 'NONE', ( #207, #161, #107, #118 ) ) ;
#160 = DIRECTION ( 'NONE',  ( 0.000000000000000000, 0.000000000000000000, 1.000000000000000000 ) ) ;
#161 = ORIENTED_EDGE ( 'NONE', *, *, #142, .F. ) ;
#162 = DIRECTION ( 'NONE',  ( 0.000000000000000000, 0.000000000000000000, 1.000000000000000000 ) ) ;
#163 = EDGE_LOOP ( 'NONE', ( #26, #279, #261, #307 ) ) ;
#164 = PLANE ( 'NONE',  #69 ) ;
#165 = DIRECTION ( 'NONE',  ( -0.000000000000000000, 1.000000000000000000, -0.000000000000000000 ) ) ;
#166 = DIRECTION ( 'NONE',  ( -0.000000000000000000, 1.000000000000000000, -0.000000000000000000 ) ) ;
#167 = COORDINATED_UNIVERSAL_TIME_OFFSET ( 1, 0, .AHEAD. ) ;
#168 = LOCAL_TIME ( 15, 43, 38.00000000000000000, #44 ) ;
#169 = FACE_OUTER_BOUND ( 'NONE', #159, .T. ) ;
#170 = CC_DESIGN_PERSON_AND_ORGANIZATION_ASSIGNMENT ( #192, #201, ( #85 ) ) ;
#171 = DIRECTION ( 'NONE',  ( 0.000000000000000000, -0.000000000000000000, 1.000000000000000000 ) ) ;
#172 = CYLINDRICAL_SURFACE ( 'NONE', #206, 8.000000000000000000 ) ;
#173 = DATE_AND_TIME ( #148, #36 ) ;
#174 =( LENGTH_UNIT ( ) NAMED_UNIT ( * ) SI_UNIT ( .MILLI., .METRE. ) );
#175 = APPROVAL_ROLE ( '' ) ;
#176 = EDGE_CURVE ( 'NONE', #263, #111, #153, .T. ) ;
#177 = DATE_AND_TIME ( #278, #52 ) ;
#178 = ORIENTED_EDGE ( 'NONE', *, *, #286, .T. ) ;
#179 = ORIENTED_EDGE ( 'NONE', *, *, #180, .F. ) ;
#180 = EDGE_CURVE ( 'NONE', #308, #109, #135, .T. ) ;
#181 = DIRECTION ( 'NONE',  ( -0.000000000000000000, 1.000000000000000000, -0.000000000000000000 ) ) ;
#182 = VERTEX_POINT ( 'NONE', #188 ) ;
#183 = FACE_OUTER_BOUND ( 'NONE', #202, .T. ) ;
#184 = ORIENTED_EDGE ( 'NONE', *, *, #264, .T. ) ;
#185 = EDGE_CURVE ( 'NONE', #182, #5, #158, .T. ) ;
#186 = CARTESIAN_POINT ( 'NONE',  ( 5.810450630706936777E-16, 13.00000000000000000, -4.744592999999999172 ) ) ;
#187 = ORIENTED_EDGE ( 'NONE', *, *, #142, .T. ) ;
#188 = CARTESIAN_POINT ( 'NONE',  ( 5.163600763924904258E-16, 0.000000000000000000, -4.216400000000000148 ) ) ;
#189 = AXIS2_PLACEMENT_3D ( 'NONE', #285, #34, #160 ) ;
#190 = CARTESIAN_POINT ( 'NONE',  ( 0.000000000000000000, 13.00000000000000000, 0.000000000000000000 ) ) ;
#191 = DIRECTION ( 'NONE',  ( -0.000000000000000000, 1.000000000000000000, -0.000000000000000000 ) ) ;
#192 = PERSON_AND_ORGANIZATION ( #41, #131 ) ;
#193 = ADVANCED_FACE ( 'NONE', ( #38 ), #300, .F. ) ;
#194 = DIRECTION ( 'NONE',  ( -0.000000000000000000, -1.000000000000000000, -0.000000000000000000 ) ) ;
#195 = SECURITY_CLASSIFICATION_LEVEL ( 'unclassified' ) ;
#196 = APPROVAL_PERSON_ORGANIZATION ( #302, #228, #98 ) ;
#197 =( NAMED_UNIT ( * ) PLANE_ANGLE_UNIT ( ) SI_UNIT ( $, .RADIAN. ) );
#198 = DATE_AND_TIME ( #124, #25 ) ;
#199 = DATE_AND_TIME ( #103, #223 ) ;
#200 = EDGE_CURVE ( 'NONE', #84, #255, #121, .T. ) ;
#201 = PERSON_AND_ORGANIZATION_ROLE ( 'design_owner' ) ;
#202 = EDGE_LOOP ( 'NONE', ( #2, #179, #91, #304 ) ) ;
#203 = ORIENTED_EDGE ( 'NONE', *, *, #43, .T. ) ;
#204 = APPROVAL ( #75, 'UNSPECIFIED' ) ;
#205 = ORIENTED_EDGE ( 'NONE', *, *, #185, .T. ) ;
#206 = AXIS2_PLACEMENT_3D ( 'NONE', #147, #45, #99 ) ;
#207 = ORIENTED_EDGE ( 'NONE', *, *, #286, .F. ) ;
#208 = EDGE_LOOP ( 'NONE', ( #232, #178, #328, #259 ) ) ;
#209 = PRODUCT_DEFINITION_SHAPE ( 'NONE', 'NONE',  #303 ) ;
#210 = DIRECTION ( 'NONE',  ( 0.000000000000000000, 0.000000000000000000, 1.000000000000000000 ) ) ;
#211 = ORIENTED_EDGE ( 'NONE', *, *, #176, .T. ) ;
#212 = CIRCLE ( 'NONE', #133, 4.216400000000009030 ) ;
#213 = CARTESIAN_POINT ( 'NONE',  ( 0.000000000000000000, 13.00000000000000000, 4.216400000000004589 ) ) ;
#214 = ORIENTED_EDGE ( 'NONE', *, *, #264, .F. ) ;
#215 = DIRECTION ( 'NONE',  ( 0.000000000000000000, 0.000000000000000000, 1.000000000000000000 ) ) ;
#216 = DIRECTION ( 'NONE',  ( -0.000000000000000000, 1.000000000000000000, -0.000000000000000000 ) ) ;
#217 = DIRECTION ( 'NONE',  ( 0.000000000000000000, 0.000000000000000000, 1.000000000000000000 ) ) ;
#218 = DIRECTION ( 'NONE',  ( 0.000000000000000000, -0.000000000000000000, 1.000000000000000000 ) ) ;
#219 = MECHANICAL_CONTEXT ( 'NONE', #280, 'mechanical' ) ;
#220 = CARTESIAN_POINT ( 'NONE',  ( 0.000000000000000000, 0.000000000000000000, 4.216400000000000148 ) ) ;
#221 = CYLINDRICAL_SURFACE ( 'NONE', #48, 4.216400000000004589 ) ;
#222 = SHAPE_DEFINITION_REPRESENTATION ( #209, #254 ) ;
#223 = LOCAL_TIME ( 15, 43, 38.00000000000000000, #226 ) ;
#224 = CARTESIAN_POINT ( 'NONE',  ( 0.000000000000000000, 6.079999999999999183, 4.537398932939922247 ) ) ;
#225 = APPROVAL_STATUS ( 'not_yet_approved' ) ;
#226 = COORDINATED_UNIVERSAL_TIME_OFFSET ( 1, 0, .AHEAD. ) ;
#227 = CYLINDRICAL_SURFACE ( 'NONE', #116, 8.000000000000000000 ) ;
#228 = APPROVAL ( #51, 'UNSPECIFIED' ) ;
#229 = EDGE_CURVE ( 'NONE', #54, #86, #258, .T. ) ;
#230 = CC_DESIGN_PERSON_AND_ORGANIZATION_ASSIGNMENT ( #66, #298, ( #266 ) ) ;
#231 = VECTOR ( 'NONE', #313, 1000.000000000000000 ) ;
#232 = ORIENTED_EDGE ( 'NONE', *, *, #176, .F. ) ;
#233 = DIRECTION ( 'NONE',  ( 0.000000000000000000, -1.000000000000000000, 0.000000000000000000 ) ) ;
#234 = ORIENTED_EDGE ( 'NONE', *, *, #229, .F. ) ;
#235 = CYLINDRICAL_SURFACE ( 'NONE', #253, 4.216400000000004589 ) ;
#236 = PRODUCT_DEFINITION_FORMATION_WITH_SPECIFIED_SOURCE ( 'ANY', '', #85, .NOT_KNOWN. ) ;
#237 = ORIENTED_EDGE ( 'NONE', *, *, #180, .T. ) ;
#238 = DIRECTION ( 'NONE',  ( 0.000000000000000000, 0.000000000000000000, 1.000000000000000000 ) ) ;
#239 = DIRECTION ( 'NONE',  ( -0.000000000000000000, 1.000000000000000000, -0.000000000000000000 ) ) ;
#240 = AXIS2_PLACEMENT_3D ( 'NONE', #245, #320, #47 ) ;
#241 = CARTESIAN_POINT ( 'NONE',  ( 0.000000000000000000, 13.00000000000000000, 4.744592999999999172 ) ) ;
#242 = EDGE_CURVE ( 'NONE', #255, #84, #104, .T. ) ;
#243 = FACE_OUTER_BOUND ( 'NONE', #290, .T. ) ;
#244 = PERSON_AND_ORGANIZATION_ROLE ( 'creator' ) ;
#245 = CARTESIAN_POINT ( 'NONE',  ( 0.000000000000000000, 0.000000000000000000, 0.000000000000000000 ) ) ;
#246 = PLANE ( 'NONE',  #306 ) ;
#247 = PERSON_AND_ORGANIZATION ( #41, #131 ) ;
#248 = ADVANCED_FACE ( 'NONE', ( #169 ), #172, .T. ) ;
#249 = LINE ( 'NONE', #11, #93 ) ;
#250 = LINE ( 'NONE', #149, #20 ) ;
#251 = CIRCLE ( 'NONE', #61, 4.537398932939922247 ) ;
#252 = CONICAL_SURFACE ( 'NONE', #189, 4.744592999999999172, 0.02993239667170294674 ) ;
#253 = AXIS2_PLACEMENT_3D ( 'NONE', #289, #181, #162 ) ;
#254 = ADVANCED_BREP_SHAPE_REPRESENTATION ( 'support sonde EGT 1 8 NPT', ( #132, #80 ), #292 ) ;
#255 = VERTEX_POINT ( 'NONE', #65 ) ;
#256 = AXIS2_PLACEMENT_3D ( 'NONE', #293, #166, #217 ) ;
#257 = ORIENTED_EDGE ( 'NONE', *, *, #83, .F. ) ;
#258 = CIRCLE ( 'NONE', #240, 8.000000000000000000 ) ;
#259 = ORIENTED_EDGE ( 'NONE', *, *, #82, .F. ) ;
#260 = DIRECTION ( 'NONE',  ( 0.000000000000000000, 0.9995520592605567911, 0.02992792722492339935 ) ) ;
#261 = ORIENTED_EDGE ( 'NONE', *, *, #242, .T. ) ;
#262 = FACE_BOUND ( 'NONE', #58, .T. ) ;
#263 = VERTEX_POINT ( 'NONE', #272 ) ;
#264 = EDGE_CURVE ( 'NONE', #182, #35, #249, .T. ) ;
#265 = DIRECTION ( 'NONE',  ( 3.665114028111737011E-18, 0.9995520592605567911, -0.02992792722492339935 ) ) ;
#266 = SECURITY_CLASSIFICATION ( '', '', #195 ) ;
#267 = DIRECTION ( 'NONE',  ( 0.000000000000000000, 0.000000000000000000, 1.000000000000000000 ) ) ;
#268 = CARTESIAN_POINT ( 'NONE',  ( 0.000000000000000000, 13.00000000000000000, -8.000000000000000000 ) ) ;
#269 = UNCERTAINTY_MEASURE_WITH_UNIT (LENGTH_MEASURE( 1.000000000000000082E-05 ), #174, 'distance_accuracy_value', 'NONE');
#270 = CARTESIAN_POINT ( 'NONE',  ( 0.000000000000000000, 13.00000000000000000, 0.000000000000000000 ) ) ;
#271 = AXIS2_PLACEMENT_3D ( 'NONE', #32, #136, #210 ) ;
#272 = CARTESIAN_POINT ( 'NONE',  ( 9.797174393178823685E-16, 13.00000000000000000, 8.000000000000000000 ) ) ;
#273 = PLANE ( 'NONE',  #39 ) ;
#274 = DIRECTION ( 'NONE',  ( 0.000000000000000000, 0.000000000000000000, 1.000000000000000000 ) ) ;
#275 = CARTESIAN_POINT ( 'NONE',  ( 0.000000000000000000, 13.00000000000000000, 0.000000000000000000 ) ) ;
#276 = APPLICATION_PROTOCOL_DEFINITION ( 'international standard', 'config_control_design', 1994, #280 ) ;
#277 = AXIS2_PLACEMENT_3D ( 'NONE', #55, #316, #87 ) ;
#278 = CALENDAR_DATE ( 2024, 21, 7 ) ;
#279 = ORIENTED_EDGE ( 'NONE', *, *, #90, .T. ) ;
#280 = APPLICATION_CONTEXT ( 'configuration controlled 3d designs of mechanical parts and assemblies' ) ;
#281 = AXIS2_PLACEMENT_3D ( 'NONE', #270, #191, #42 ) ;
#282 = ORIENTED_EDGE ( 'NONE', *, *, #43, .F. ) ;
#283 = CARTESIAN_POINT ( 'NONE',  ( 4.216400000000009030, 6.080000000000000071, 0.000000000000000000 ) ) ;
#284 = VERTEX_POINT ( 'NONE', #68 ) ;
#285 = CARTESIAN_POINT ( 'NONE',  ( 0.000000000000000000, 13.00000000000000000, 0.000000000000000000 ) ) ;
#286 = EDGE_CURVE ( 'NONE', #263, #54, #250, .T. ) ;
#287 = EDGE_LOOP ( 'NONE', ( #305, #205 ) ) ;
#288 = ADVANCED_FACE ( 'NONE', ( #126 ), #221, .F. ) ;
#289 = CARTESIAN_POINT ( 'NONE',  ( 0.000000000000000000, 13.00000000000000000, 0.000000000000000000 ) ) ;
#290 = EDGE_LOOP ( 'NONE', ( #187, #211 ) ) ;
#291 = CARTESIAN_POINT ( 'NONE',  ( 0.000000000000000000, 0.000000000000000000, 0.000000000000000000 ) ) ;
#292 =( GEOMETRIC_REPRESENTATION_CONTEXT ( 3 ) GLOBAL_UNCERTAINTY_ASSIGNED_CONTEXT ( ( #269 ) ) GLOBAL_UNIT_ASSIGNED_CONTEXT ( ( #174, #197, #22 ) ) REPRESENTATION_CONTEXT ( 'NONE', 'WORKASPACE' ) );
#293 = CARTESIAN_POINT ( 'NONE',  ( 0.000000000000000000, 6.080000000000001847, 0.000000000000000000 ) ) ;
#294 = DIRECTION ( 'NONE',  ( 0.000000000000000000, 0.000000000000000000, 1.000000000000000000 ) ) ;
#295 = FACE_OUTER_BOUND ( 'NONE', #114, .T. ) ;
#296 = PERSON_AND_ORGANIZATION ( #41, #131 ) ;
#297 = APPROVAL_PERSON_ORGANIZATION ( #49, #204, #175 ) ;
#298 = PERSON_AND_ORGANIZATION_ROLE ( 'classification_officer' ) ;
#299 = VECTOR ( 'NONE', #260, 1000.000000000000227 ) ;
#300 = CONICAL_SURFACE ( 'NONE', #74, 4.744592999999999172, 0.02993239667170294674 ) ;
#301 = DATE_TIME_ROLE ( 'classification_date' ) ;
#302 = PERSON_AND_ORGANIZATION ( #41, #131 ) ;
#303 = PRODUCT_DEFINITION ( 'UNKNOWN', '', #236, #102 ) ;
#304 = ORIENTED_EDGE ( 'NONE', *, *, #200, .T. ) ;
#305 = ORIENTED_EDGE ( 'NONE', *, *, #134, .T. ) ;
#306 = AXIS2_PLACEMENT_3D ( 'NONE', #12, #70, #171 ) ;
#307 = ORIENTED_EDGE ( 'NONE', *, *, #78, .F. ) ;
#308 = VERTEX_POINT ( 'NONE', #224 ) ;
#309 = APPROVAL_PERSON_ORGANIZATION ( #325, #30, #324 ) ;
#310 = DIRECTION ( 'NONE',  ( -0.000000000000000000, 1.000000000000000000, -0.000000000000000000 ) ) ;
#311 = VECTOR ( 'NONE', #265, 1000.000000000000227 ) ;
#312 = ORIENTED_EDGE ( 'NONE', *, *, #134, .F. ) ;
#313 = DIRECTION ( 'NONE',  ( -0.000000000000000000, 1.000000000000000000, -0.000000000000000000 ) ) ;
#314 = ORIENTED_EDGE ( 'NONE', *, *, #185, .F. ) ;
#315 = DIRECTION ( 'NONE',  ( -0.000000000000000000, 1.000000000000000000, -0.000000000000000000 ) ) ;
#316 = DIRECTION ( 'NONE',  ( 0.000000000000000000, 1.000000000000000000, 0.000000000000000000 ) ) ;
#317 = AXIS2_PLACEMENT_3D ( 'NONE', #6, #315, #92 ) ;
#318 = CARTESIAN_POINT ( 'NONE',  ( 0.000000000000000000, 13.00000000000000000, 4.744592999999999172 ) ) ;
#319 = FACE_BOUND ( 'NONE', #287, .T. ) ;
#320 = DIRECTION ( 'NONE',  ( 0.000000000000000000, 1.000000000000000000, 0.000000000000000000 ) ) ;
#321 = DATE_TIME_ROLE ( 'creation_date' ) ;
#322 = EDGE_CURVE ( 'NONE', #109, #308, #251, .T. ) ;
#323 = DIRECTION ( 'NONE',  ( -0.000000000000000000, 1.000000000000000000, -0.000000000000000000 ) ) ;
#324 = APPROVAL_ROLE ( '' ) ;
#325 = PERSON_AND_ORGANIZATION ( #41, #131 ) ;
#326 = CIRCLE ( 'NONE', #50, 4.216400000000000148 ) ;
#327 = EDGE_LOOP ( 'NONE', ( #237, #81 ) ) ;
#328 = ORIENTED_EDGE ( 'NONE', *, *, #229, .T. ) ;
#329 = PRODUCT_RELATED_PRODUCT_CATEGORY ( 'detail', '', ( #85 ) ) ;
ENDSEC;
END-ISO-10303-21;
