ISO-10303-21;
HEADER;
FILE_DESCRIPTION( ( 'STEP AP203' ), '1' );
FILE_NAME( ' ', '  ', ( '  ' ), ( '  ' ), 'PSStep 10.1', '  ', '  ' );
FILE_SCHEMA( ( 'CONFIG_CONTROL_DESIGN' ) );
ENDSEC;
DATA;
#1 = DESIGN_CONTEXT( '', #27, 'design' );
#2 = APPLICATION_PROTOCOL_DEFINITION( 'INTERNATIONAL STANDARD', 'config_control_design', 1994, #27 );
#3 = PRODUCT_CATEGORY_RELATIONSHIP( 'NONE', 'NONE', #28, #29 );
#4 = DATE_AND_TIME( #30, #31 );
#5 = DATE_TIME_ROLE( 'creation_date' );
#6 = DATE_TIME_ROLE( 'classification_date' );
#7 = PERSON_AND_ORGANIZATION_ROLE( 'creator' );
#8 = PERSON_AND_ORGANIZATION_ROLE( 'design_supplier' );
#9 = PERSON_AND_ORGANIZATION_ROLE( 'classification_officer' );
#10 = PERSON_AND_ORGANIZATION_ROLE( 'design_owner' );
#11 = APPROVAL_PERSON_ORGANIZATION( #32, #33, #34 );
#12 = APPROVAL_DATE_TIME( #4, #33 );
#13 = CC_DESIGN_APPROVAL( #33, ( #35, #36, #37 ) );
#14 = CC_DESIGN_DATE_AND_TIME_ASSIGNMENT( #4, #5, ( #37 ) );
#15 = CC_DESIGN_DATE_AND_TIME_ASSIGNMENT( #4, #6, ( #35 ) );
#16 = CC_DESIGN_PERSON_AND_ORGANIZATION_ASSIGNMENT( #32, #10, ( #38 ) );
#17 = CC_DESIGN_PERSON_AND_ORGANIZATION_ASSIGNMENT( #32, #7, ( #37 ) );
#18 = CC_DESIGN_PERSON_AND_ORGANIZATION_ASSIGNMENT( #32, #7, ( #36 ) );
#19 = CC_DESIGN_PERSON_AND_ORGANIZATION_ASSIGNMENT( #32, #8, ( #36 ) );
#20 = CC_DESIGN_SECURITY_CLASSIFICATION( #35, ( #36 ) );
#21 = CC_DESIGN_PERSON_AND_ORGANIZATION_ASSIGNMENT( #32, #9, ( #35 ) );
#22 = SHAPE_DEFINITION_REPRESENTATION( #39, #40 );
#23 =  ( GEOMETRIC_REPRESENTATION_CONTEXT( 3 )GLOBAL_UNCERTAINTY_ASSIGNED_CONTEXT( ( #43 ) )GLOBAL_UNIT_ASSIGNED_CONTEXT( ( #45, #46, #47 ) )REPRESENTATION_CONTEXT( 'NONE', 'WORKSPACE' ) );
#27 = APPLICATION_CONTEXT( 'CONFIGURATION CONTROLLED 3D DESIGNS OF MECHANICAL PARTS AND ASSEMBLIES' );
#28 = PRODUCT_CATEGORY( 'part', 'NONE' );
#29 = PRODUCT_RELATED_PRODUCT_CATEGORY( 'detail', ' ', ( #38 ) );
#30 = CALENDAR_DATE( 2024, 12, 6 );
#31 = LOCAL_TIME( 7, 28, 47.0000000000000, #49 );
#32 = PERSON_AND_ORGANIZATION( #50, #51 );
#33 = APPROVAL( #52, 'SOLID MODEL' );
#34 = APPROVAL_ROLE( 'APPROVED' );
#35 = SECURITY_CLASSIFICATION( '', '', #53 );
#36 = PRODUCT_DEFINITION_FORMATION_WITH_SPECIFIED_SOURCE( ' ', 'NONE', #38, .NOT_KNOWN. );
#37 = PRODUCT_DEFINITION( 'NONE', 'NONE', #36, #1 );
#38 = PRODUCT( '1', '1', 'PART-1-DESC', ( #54 ) );
#39 = PRODUCT_DEFINITION_SHAPE( 'NONE', 'NONE', #37 );
#40 = ADVANCED_BREP_SHAPE_REPRESENTATION( '1', ( #55, #56 ), #23 );
#43 = UNCERTAINTY_MEASURE_WITH_UNIT( LENGTH_MEASURE( 0.00100000000000000 ), #45, '', '' );
#45 =  ( CONVERSION_BASED_UNIT( 'MILLIMETRE', #59 )LENGTH_UNIT(  )NAMED_UNIT( #62 ) );
#46 =  ( NAMED_UNIT( #64 )PLANE_ANGLE_UNIT(  )SI_UNIT( $, .RADIAN. ) );
#47 =  ( NAMED_UNIT( #64 )SI_UNIT( $, .STERADIAN. )SOLID_ANGLE_UNIT(  ) );
#49 = COORDINATED_UNIVERSAL_TIME_OFFSET( 1, 0, .AHEAD. );
#50 = PERSON( '', 'UNSPECIFIED', $, $, $, $ );
#51 = ORGANIZATION( 'UNSPECIFIED', 'UNSPECIFIED', 'UNSPECIFIED' );
#52 = APPROVAL_STATUS( 'approved' );
#53 = SECURITY_CLASSIFICATION_LEVEL( 'unclassified' );
#54 = MECHANICAL_CONTEXT( '', #27, 'mechanical' );
#55 = MANIFOLD_SOLID_BREP( '1', #70 );
#56 = AXIS2_PLACEMENT_3D( '', #71, #72, #73 );
#59 = LENGTH_MEASURE_WITH_UNIT( LENGTH_MEASURE( 1.00000000000000 ), #74 );
#62 = DIMENSIONAL_EXPONENTS( 1.00000000000000, 0.000000000000000, 0.000000000000000, 0.000000000000000, 0.000000000000000, 0.000000000000000, 0.000000000000000 );
#64 = DIMENSIONAL_EXPONENTS( 0.000000000000000, 0.000000000000000, 0.000000000000000, 0.000000000000000, 0.000000000000000, 0.000000000000000, 0.000000000000000 );
#70 = CLOSED_SHELL( '', ( #75, #76, #77, #78, #79, #80, #81, #82, #83, #84, #85, #86 ) );
#71 = CARTESIAN_POINT( '', ( 0.000000000000000, 0.000000000000000, 0.000000000000000 ) );
#72 = DIRECTION( '', ( 0.000000000000000, 0.000000000000000, 1.00000000000000 ) );
#73 = DIRECTION( '', ( 1.00000000000000, 0.000000000000000, 0.000000000000000 ) );
#74 =  ( LENGTH_UNIT(  )NAMED_UNIT( #62 )SI_UNIT( .MILLI., .METRE. ) );
#75 = ADVANCED_FACE( '', ( #88 ), #89, .T. );
#76 = ADVANCED_FACE( '', ( #90 ), #91, .T. );
#77 = ADVANCED_FACE( '', ( #92, #93 ), #94, .F. );
#78 = ADVANCED_FACE( '', ( #95 ), #96, .T. );
#79 = ADVANCED_FACE( '', ( #97 ), #98, .F. );
#80 = ADVANCED_FACE( '', ( #99, #100 ), #101, .T. );
#81 = ADVANCED_FACE( '', ( #102 ), #103, .T. );
#82 = ADVANCED_FACE( '', ( #104 ), #105, .T. );
#83 = ADVANCED_FACE( '', ( #106 ), #107, .F. );
#84 = ADVANCED_FACE( '', ( #108 ), #109, .F. );
#85 = ADVANCED_FACE( '', ( #110 ), #111, .T. );
#86 = ADVANCED_FACE( '', ( #112 ), #113, .T. );
#88 = FACE_OUTER_BOUND( '', #114, .T. );
#89 = PLANE( '', #115 );
#90 = FACE_OUTER_BOUND( '', #116, .T. );
#91 = CONICAL_SURFACE( '', #117, 0.999999999999103, 0.785398163397000 );
#92 = FACE_OUTER_BOUND( '', #118, .T. );
#93 = FACE_BOUND( '', #119, .T. );
#94 = PLANE( '', #120 );
#95 = FACE_OUTER_BOUND( '', #121, .T. );
#96 = CONICAL_SURFACE( '', #122, 1.00000000000110, 0.785398163398000 );
#97 = FACE_OUTER_BOUND( '', #123, .T. );
#98 = CYLINDRICAL_SURFACE( '', #124, 14.9999999999000 );
#99 = FACE_OUTER_BOUND( '', #125, .T. );
#100 = FACE_BOUND( '', #126, .T. );
#101 = PLANE( '', #127 );
#102 = FACE_OUTER_BOUND( '', #128, .T. );
#103 = PLANE( '', #129 );
#104 = FACE_OUTER_BOUND( '', #130, .T. );
#105 = PLANE( '', #131 );
#106 = FACE_OUTER_BOUND( '', #132, .T. );
#107 = CYLINDRICAL_SURFACE( '', #133, 14.9999999999000 );
#108 = FACE_OUTER_BOUND( '', #134, .T. );
#109 = CYLINDRICAL_SURFACE( '', #135, 14.9999999999000 );
#110 = FACE_OUTER_BOUND( '', #136, .T. );
#111 = CYLINDRICAL_SURFACE( '', #137, 62.5000000000000 );
#112 = FACE_OUTER_BOUND( '', #138, .T. );
#113 = CYLINDRICAL_SURFACE( '', #139, 62.5000000000000 );
#114 = EDGE_LOOP( '', ( #140, #141, #142, #143 ) );
#115 = AXIS2_PLACEMENT_3D( '', #144, #145, #146 );
#116 = EDGE_LOOP( '', ( #147, #148, #149, #150 ) );
#117 = AXIS2_PLACEMENT_3D( '', #151, #152, #153 );
#118 = EDGE_LOOP( '', ( #154, #155 ) );
#119 = EDGE_LOOP( '', ( #156, #157, #158, #159, #160, #161 ) );
#120 = AXIS2_PLACEMENT_3D( '', #162, #163, #164 );
#121 = EDGE_LOOP( '', ( #165, #166, #167, #168 ) );
#122 = AXIS2_PLACEMENT_3D( '', #169, #170, #171 );
#123 = EDGE_LOOP( '', ( #172, #173, #174, #175 ) );
#124 = AXIS2_PLACEMENT_3D( '', #176, #177, #178 );
#125 = EDGE_LOOP( '', ( #179, #180 ) );
#126 = EDGE_LOOP( '', ( #181, #182, #183, #184, #185, #186 ) );
#127 = AXIS2_PLACEMENT_3D( '', #187, #188, #189 );
#128 = EDGE_LOOP( '', ( #190, #191, #192, #193 ) );
#129 = AXIS2_PLACEMENT_3D( '', #194, #195, #196 );
#130 = EDGE_LOOP( '', ( #197, #198, #199, #200 ) );
#131 = AXIS2_PLACEMENT_3D( '', #201, #202, #203 );
#132 = EDGE_LOOP( '', ( #204, #205, #206, #207 ) );
#133 = AXIS2_PLACEMENT_3D( '', #208, #209, #210 );
#134 = EDGE_LOOP( '', ( #211, #212, #213, #214 ) );
#135 = AXIS2_PLACEMENT_3D( '', #215, #216, #217 );
#136 = EDGE_LOOP( '', ( #218, #219, #220, #221 ) );
#137 = AXIS2_PLACEMENT_3D( '', #222, #223, #224 );
#138 = EDGE_LOOP( '', ( #225, #226, #227, #228 ) );
#139 = AXIS2_PLACEMENT_3D( '', #229, #230, #231 );
#140 = ORIENTED_EDGE( '', *, *, #232, .F. );
#141 = ORIENTED_EDGE( '', *, *, #233, .T. );
#142 = ORIENTED_EDGE( '', *, *, #234, .T. );
#143 = ORIENTED_EDGE( '', *, *, #235, .F. );
#144 = CARTESIAN_POINT( '', ( 14814.2985406000, -319.849678356000, 2453.76833082000 ) );
#145 = DIRECTION( '', ( 0.0108271178384975, 0.999941383765769, 5.05164444078883E-005 ) );
#146 = DIRECTION( '', ( 0.00466568253180985, 0.000000000000000, -0.999989115644022 ) );
#147 = ORIENTED_EDGE( '', *, *, #236, .T. );
#148 = ORIENTED_EDGE( '', *, *, #237, .T. );
#149 = ORIENTED_EDGE( '', *, *, #238, .F. );
#150 = ORIENTED_EDGE( '', *, *, #239, .F. );
#151 = CARTESIAN_POINT( '', ( 14755.1084677180, -315.957798988957, 2438.06360049085 ) );
#152 = DIRECTION( '', ( 0.999781617971526, -0.0108262909572886, 0.0178747808474915 ) );
#153 = DIRECTION( '', ( 0.0108280209140012, 0.999941375263113, 7.56506256578549E-015 ) );
#154 = ORIENTED_EDGE( '', *, *, #237, .F. );
#155 = ORIENTED_EDGE( '', *, *, #240, .F. );
#156 = ORIENTED_EDGE( '', *, *, #241, .F. );
#157 = ORIENTED_EDGE( '', *, *, #242, .F. );
#158 = ORIENTED_EDGE( '', *, *, #233, .F. );
#159 = ORIENTED_EDGE( '', *, *, #243, .T. );
#160 = ORIENTED_EDGE( '', *, *, #244, .T. );
#161 = ORIENTED_EDGE( '', *, *, #245, .T. );
#162 = CARTESIAN_POINT( '', ( 14855.1419162000, -160.861217796000, 265.590406381000 ) );
#163 = DIRECTION( '', ( 0.999781617971528, -0.0108262909572949, 0.0178747808473916 ) );
#164 = DIRECTION( '', ( 0.000000000000000, -0.855344352036392, -0.518059880167771 ) );
#165 = ORIENTED_EDGE( '', *, *, #238, .T. );
#166 = ORIENTED_EDGE( '', *, *, #240, .T. );
#167 = ORIENTED_EDGE( '', *, *, #236, .F. );
#168 = ORIENTED_EDGE( '', *, *, #246, .F. );
#169 = CARTESIAN_POINT( '', ( 14755.1084677180, -315.957798988957, 2438.06360049085 ) );
#170 = DIRECTION( '', ( 0.999781617971525, -0.0108262909573973, 0.0178747808474957 ) );
#171 = DIRECTION( '', ( -0.0208931172463004, -0.499803069713010, 0.865887041800017 ) );
#172 = ORIENTED_EDGE( '', *, *, #232, .T. );
#173 = ORIENTED_EDGE( '', *, *, #247, .T. );
#174 = ORIENTED_EDGE( '', *, *, #248, .F. );
#175 = ORIENTED_EDGE( '', *, *, #243, .F. );
#176 = CARTESIAN_POINT( '', ( 14817.0949281000, -316.629029028000, 2439.17183690000 ) );
#177 = DIRECTION( '', ( -0.999781617971528, 0.0108262909573005, -0.0178747808474006 ) );
#178 = DIRECTION( '', ( -0.0208964350709935, -0.527544857055836, 0.849270135348736 ) );
#179 = ORIENTED_EDGE( '', *, *, #249, .T. );
#180 = ORIENTED_EDGE( '', *, *, #250, .T. );
#181 = ORIENTED_EDGE( '', *, *, #251, .F. );
#182 = ORIENTED_EDGE( '', *, *, #252, .F. );
#183 = ORIENTED_EDGE( '', *, *, #247, .F. );
#184 = ORIENTED_EDGE( '', *, *, #235, .T. );
#185 = ORIENTED_EDGE( '', *, *, #253, .T. );
#186 = ORIENTED_EDGE( '', *, *, #254, .T. );
#187 = CARTESIAN_POINT( '', ( 14860.1408243000, -160.915349251000, 265.679780285000 ) );
#188 = DIRECTION( '', ( 0.999781617971528, -0.0108262909572949, 0.0178747808473916 ) );
#189 = DIRECTION( '', ( 0.000000000000000, -0.855344352036392, -0.518059880167771 ) );
#190 = ORIENTED_EDGE( '', *, *, #234, .F. );
#191 = ORIENTED_EDGE( '', *, *, #242, .T. );
#192 = ORIENTED_EDGE( '', *, *, #255, .T. );
#193 = ORIENTED_EDGE( '', *, *, #253, .F. );
#194 = CARTESIAN_POINT( '', ( 14814.2296117000, -319.849126799000, 2457.62403006000 ) );
#195 = DIRECTION( '', ( 0.0178742800007996, -0.000143026946083997, -0.999840232065977 ) );
#196 = DIRECTION( '', ( 0.000000000000000, -0.999999989768377, 0.000143049799391510 ) );
#197 = ORIENTED_EDGE( '', *, *, #255, .F. );
#198 = ORIENTED_EDGE( '', *, *, #241, .T. );
#199 = ORIENTED_EDGE( '', *, *, #256, .T. );
#200 = ORIENTED_EDGE( '', *, *, #254, .F. );
#201 = CARTESIAN_POINT( '', ( 14814.2999880000, -313.349507805000, 2457.62435842000 ) );
#202 = DIRECTION( '', ( -0.0108271178384975, -0.999941383765769, -5.05164444078883E-005 ) );
#203 = DIRECTION( '', ( -0.999941385041650, 0.0108271178523124, -8.76320620372412E-023 ) );
#204 = ORIENTED_EDGE( '', *, *, #256, .F. );
#205 = ORIENTED_EDGE( '', *, *, #245, .F. );
#206 = ORIENTED_EDGE( '', *, *, #257, .T. );
#207 = ORIENTED_EDGE( '', *, *, #251, .T. );
#208 = CARTESIAN_POINT( '', ( 14817.0949281000, -316.629029028000, 2439.17183690000 ) );
#209 = DIRECTION( '', ( -0.999781617971528, 0.0108262909573005, -0.0178747808474006 ) );
#210 = DIRECTION( '', ( -0.0208964350709935, -0.527544857055836, 0.849270135348736 ) );
#211 = ORIENTED_EDGE( '', *, *, #252, .T. );
#212 = ORIENTED_EDGE( '', *, *, #257, .F. );
#213 = ORIENTED_EDGE( '', *, *, #244, .F. );
#214 = ORIENTED_EDGE( '', *, *, #248, .T. );
#215 = CARTESIAN_POINT( '', ( 14817.0949281000, -316.629029028000, 2439.17183690000 ) );
#216 = DIRECTION( '', ( -0.999781617971528, 0.0108262909573005, -0.0178747808474006 ) );
#217 = DIRECTION( '', ( -0.0208964350709935, -0.527544857055836, 0.849270135348736 ) );
#218 = ORIENTED_EDGE( '', *, *, #258, .T. );
#219 = ORIENTED_EDGE( '', *, *, #249, .F. );
#220 = ORIENTED_EDGE( '', *, *, #259, .F. );
#221 = ORIENTED_EDGE( '', *, *, #239, .T. );
#222 = CARTESIAN_POINT( '', ( 14817.0949281000, -316.629029028000, 2439.17183690000 ) );
#223 = DIRECTION( '', ( -0.999781617971528, 0.0108262909572886, -0.0178747808473915 ) );
#224 = DIRECTION( '', ( 0.0108280209140012, 0.999941375263113, 3.68476834232865E-015 ) );
#225 = ORIENTED_EDGE( '', *, *, #259, .T. );
#226 = ORIENTED_EDGE( '', *, *, #250, .F. );
#227 = ORIENTED_EDGE( '', *, *, #258, .F. );
#228 = ORIENTED_EDGE( '', *, *, #246, .T. );
#229 = CARTESIAN_POINT( '', ( 14817.0949281000, -316.629029028000, 2439.17183690000 ) );
#230 = DIRECTION( '', ( -0.999781617971528, 0.0108262909572886, -0.0178747808473915 ) );
#231 = DIRECTION( '', ( 0.0108280209140012, 0.999941375263113, 3.68476834232865E-015 ) );
#232 = EDGE_CURVE( '', #260, #261, #262, .T. );
#233 = EDGE_CURVE( '', #260, #263, #264, .T. );
#234 = EDGE_CURVE( '', #263, #265, #266, .T. );
#235 = EDGE_CURVE( '', #261, #265, #267, .T. );
#236 = EDGE_CURVE( '', #268, #269, #270, .T. );
#237 = EDGE_CURVE( '', #269, #271, #272, .T. );
#238 = EDGE_CURVE( '', #273, #271, #274, .T. );
#239 = EDGE_CURVE( '', #268, #273, #275, .T. );
#240 = EDGE_CURVE( '', #271, #269, #276, .T. );
#241 = EDGE_CURVE( '', #277, #278, #279, .T. );
#242 = EDGE_CURVE( '', #263, #277, #280, .T. );
#243 = EDGE_CURVE( '', #260, #281, #282, .T. );
#244 = EDGE_CURVE( '', #281, #283, #284, .T. );
#245 = EDGE_CURVE( '', #283, #278, #285, .T. );
#246 = EDGE_CURVE( '', #273, #268, #286, .T. );
#247 = EDGE_CURVE( '', #261, #287, #288, .T. );
#248 = EDGE_CURVE( '', #281, #287, #289, .T. );
#249 = EDGE_CURVE( '', #290, #291, #292, .T. );
#250 = EDGE_CURVE( '', #291, #290, #293, .T. );
#251 = EDGE_CURVE( '', #294, #295, #296, .T. );
#252 = EDGE_CURVE( '', #287, #294, #297, .T. );
#253 = EDGE_CURVE( '', #265, #298, #299, .T. );
#254 = EDGE_CURVE( '', #298, #295, #300, .T. );
#255 = EDGE_CURVE( '', #277, #298, #301, .T. );
#256 = EDGE_CURVE( '', #278, #295, #302, .T. );
#257 = EDGE_CURVE( '', #283, #294, #303, .T. );
#258 = EDGE_CURVE( '', #273, #291, #304, .T. );
#259 = EDGE_CURVE( '', #268, #290, #305, .T. );
#260 = VERTEX_POINT( '', #306 );
#261 = VERTEX_POINT( '', #307 );
#262 = LINE( '', #308, #309 );
#263 = VERTEX_POINT( '', #310 );
#264 = LINE( '', #311, #312 );
#265 = VERTEX_POINT( '', #313 );
#266 = LINE( '', #314, #315 );
#267 = LINE( '', #316, #317 );
#268 = VERTEX_POINT( '', #318 );
#269 = VERTEX_POINT( '', #319 );
#270 = LINE( '', #320, #321 );
#271 = VERTEX_POINT( '', #322 );
#272 = CIRCLE( '', #323, 60.5000000000000 );
#273 = VERTEX_POINT( '', #324 );
#274 = LINE( '', #325, #326 );
#275 = CIRCLE( '', #327, 62.5000000000000 );
#276 = CIRCLE( '', #328, 60.5000000000000 );
#277 = VERTEX_POINT( '', #329 );
#278 = VERTEX_POINT( '', #330 );
#279 = LINE( '', #331, #332 );
#280 = LINE( '', #333, #334 );
#281 = VERTEX_POINT( '', #335 );
#282 = CIRCLE( '', #336, 14.9999999999000 );
#283 = VERTEX_POINT( '', #337 );
#284 = CIRCLE( '', #338, 14.9999999999000 );
#285 = CIRCLE( '', #339, 14.9999999999000 );
#286 = CIRCLE( '', #340, 62.5000000000000 );
#287 = VERTEX_POINT( '', #341 );
#288 = CIRCLE( '', #342, 14.9999999999000 );
#289 = LINE( '', #343, #344 );
#290 = VERTEX_POINT( '', #345 );
#291 = VERTEX_POINT( '', #346 );
#292 = CIRCLE( '', #347, 62.5000000000000 );
#293 = CIRCLE( '', #348, 62.5000000000000 );
#294 = VERTEX_POINT( '', #349 );
#295 = VERTEX_POINT( '', #350 );
#296 = CIRCLE( '', #351, 14.9999999999000 );
#297 = CIRCLE( '', #352, 14.9999999999000 );
#298 = VERTEX_POINT( '', #353 );
#299 = LINE( '', #354, #355 );
#300 = LINE( '', #356, #357 );
#301 = LINE( '', #358, #359 );
#302 = LINE( '', #360, #361 );
#303 = LINE( '', #362, #363 );
#304 = LINE( '', #364, #365 );
#305 = LINE( '', #366, #367 );
#306 = CARTESIAN_POINT( '', ( 14814.2985406000, -319.849678356000, 2453.76833082000 ) );
#307 = CARTESIAN_POINT( '', ( 14819.2974487000, -319.903809811000, 2453.85770473000 ) );
#308 = CARTESIAN_POINT( '', ( 14816.7979946000, -319.876744084000, 2453.81301778000 ) );
#309 = VECTOR( '', #368, 1000.00000000000 );
#310 = CARTESIAN_POINT( '', ( 14814.2296117000, -319.849126799000, 2457.62403006000 ) );
#311 = CARTESIAN_POINT( '', ( 14814.2640761000, -319.849402578000, 2455.69618044000 ) );
#312 = VECTOR( '', #369, 1000.00000000000 );
#313 = CARTESIAN_POINT( '', ( 14819.2285198000, -319.903258254000, 2457.71340397000 ) );
#314 = CARTESIAN_POINT( '', ( 14816.7290658000, -319.876192527000, 2457.66871701000 ) );
#315 = VECTOR( '', #370, 1000.00000000000 );
#316 = CARTESIAN_POINT( '', ( 14819.2629842000, -319.903534033000, 2455.78555435000 ) );
#317 = VECTOR( '', #371, 1000.00000000000 );
#318 = CARTESIAN_POINT( '', ( 14817.2717886000, -254.127279929000, 2439.16289951000 ) );
#319 = CARTESIAN_POINT( '', ( 14815.2505693000, -256.105510097000, 2439.12714995000 ) );
#320 = CARTESIAN_POINT( '', ( 14816.2611789000, -255.116395013000, 2439.14502473000 ) );
#321 = VECTOR( '', #372, 1000.00000000000 );
#322 = CARTESIAN_POINT( '', ( 14813.9403788000, -377.098416504000, 2439.12714995000 ) );
#323 = AXIS2_PLACEMENT_3D( '', #373, #374, #375 );
#324 = CARTESIAN_POINT( '', ( 14815.9182859000, -379.119951837000, 2439.16289951000 ) );
#325 = CARTESIAN_POINT( '', ( 14814.9293324000, -378.109184170000, 2439.14502473000 ) );
#326 = VECTOR( '', #376, 1000.00000000000 );
#327 = AXIS2_PLACEMENT_3D( '', #377, #378, #379 );
#328 = AXIS2_PLACEMENT_3D( '', #380, #381, #382 );
#329 = CARTESIAN_POINT( '', ( 14814.2999880000, -313.349507805000, 2457.62435842000 ) );
#330 = CARTESIAN_POINT( '', ( 14814.3689168000, -313.350059361000, 2453.76865918000 ) );
#331 = CARTESIAN_POINT( '', ( 14814.3344524000, -313.349783583000, 2455.69650880000 ) );
#332 = VECTOR( '', #383, 1000.00000000000 );
#333 = CARTESIAN_POINT( '', ( 14814.2647998000, -316.599317302000, 2457.62419424000 ) );
#334 = VECTOR( '', #384, 1000.00000000000 );
#335 = CARTESIAN_POINT( '', ( 14814.2820275000, -324.515136157000, 2451.86620198000 ) );
#336 = AXIS2_PLACEMENT_3D( '', #385, #386, #387 );
#337 = CARTESIAN_POINT( '', ( 14814.9089205000, -308.688790445000, 2426.38809792000 ) );
#338 = AXIS2_PLACEMENT_3D( '', #388, #389, #390 );
#339 = AXIS2_PLACEMENT_3D( '', #391, #392, #393 );
#340 = AXIS2_PLACEMENT_3D( '', #394, #395, #396 );
#341 = CARTESIAN_POINT( '', ( 14819.2809356000, -324.569267611000, 2451.95557588000 ) );
#342 = AXIS2_PLACEMENT_3D( '', #397, #398, #399 );
#343 = CARTESIAN_POINT( '', ( 14816.7814815000, -324.542201884000, 2451.91088893000 ) );
#344 = VECTOR( '', #400, 1000.00000000000 );
#345 = CARTESIAN_POINT( '', ( 14820.2711334000, -254.159758802000, 2439.21652385000 ) );
#346 = CARTESIAN_POINT( '', ( 14818.9176308000, -379.152430709000, 2439.21652385000 ) );
#347 = AXIS2_PLACEMENT_3D( '', #401, #402, #403 );
#348 = AXIS2_PLACEMENT_3D( '', #404, #405, #406 );
#349 = CARTESIAN_POINT( '', ( 14819.9078286000, -308.742921900000, 2426.47747182000 ) );
#350 = CARTESIAN_POINT( '', ( 14819.3678249000, -313.404190816000, 2453.85803308000 ) );
#351 = AXIS2_PLACEMENT_3D( '', #407, #408, #409 );
#352 = AXIS2_PLACEMENT_3D( '', #410, #411, #412 );
#353 = CARTESIAN_POINT( '', ( 14819.2988961000, -313.403639260000, 2457.71373232000 ) );
#354 = CARTESIAN_POINT( '', ( 14819.2637079000, -316.653448757000, 2457.71356814000 ) );
#355 = VECTOR( '', #413, 1000.00000000000 );
#356 = CARTESIAN_POINT( '', ( 14819.3333605000, -313.403915038000, 2455.78588270000 ) );
#357 = VECTOR( '', #414, 1000.00000000000 );
#358 = CARTESIAN_POINT( '', ( 14816.7994420000, -313.376573532000, 2457.66904537000 ) );
#359 = VECTOR( '', #415, 1000.00000000000 );
#360 = CARTESIAN_POINT( '', ( 14816.8683709000, -313.377125089000, 2453.81334613000 ) );
#361 = VECTOR( '', #416, 1000.00000000000 );
#362 = CARTESIAN_POINT( '', ( 14817.4083746000, -308.715856172000, 2426.43278487000 ) );
#363 = VECTOR( '', #417, 1000.00000000000 );
#364 = CARTESIAN_POINT( '', ( 14816.4181768000, -379.125364982000, 2439.17183690000 ) );
#365 = VECTOR( '', #418, 1000.00000000000 );
#366 = CARTESIAN_POINT( '', ( 14817.7716794000, -254.132693074000, 2439.17183690000 ) );
#367 = VECTOR( '', #419, 1000.00000000000 );
#368 = DIRECTION( '', ( 0.999781617971529, -0.0108262909572949, 0.0178747808472916 ) );
#369 = DIRECTION( '', ( -0.0178742800008995, 0.000143026946045996, 0.999840232065975 ) );
#370 = DIRECTION( '', ( 0.999781617971528, -0.0108262909572949, 0.0178747808473916 ) );
#371 = DIRECTION( '', ( -0.0178742800008995, 0.000143026946045996, 0.999840232065975 ) );
#372 = DIRECTION( '', ( -0.714608928788003, -0.699409983487003, -0.0126393787495001 ) );
#373 = CARTESIAN_POINT( '', ( 14814.5954740000, -316.601963301000, 2439.12714995000 ) );
#374 = DIRECTION( '', ( 0.999781617971528, -0.0108262909572960, 0.0178747808473933 ) );
#375 = DIRECTION( '', ( 0.0208977598377043, 0.517946745200270, -0.855157560201751 ) );
#376 = DIRECTION( '', ( -0.699295794758372, 0.714720670988380, -0.0126393787496067 ) );
#377 = CARTESIAN_POINT( '', ( 14816.5950373000, -316.623615883000, 2439.16289951000 ) );
#378 = DIRECTION( '', ( 0.999781617971526, -0.0108262909572954, 0.0178747808474925 ) );
#379 = DIRECTION( '', ( 0.0208977598377888, 0.517946745198149, -0.855157560203034 ) );
#380 = CARTESIAN_POINT( '', ( 14814.5954740000, -316.601963301000, 2439.12714995000 ) );
#381 = DIRECTION( '', ( 0.999781617971528, -0.0108262909572960, 0.0178747808473933 ) );
#382 = DIRECTION( '', ( 0.0208977598377043, 0.517946745200270, -0.855157560201751 ) );
#383 = DIRECTION( '', ( 0.0178742800008995, -0.000143026946045996, -0.999840232065975 ) );
#384 = DIRECTION( '', ( 0.0108271178384975, 0.999941383765769, 5.05164443893883E-005 ) );
#385 = CARTESIAN_POINT( '', ( 14814.5954740000, -316.601963301000, 2439.12714995000 ) );
#386 = DIRECTION( '', ( 0.999781617971528, -0.0108262909572960, 0.0178747808473933 ) );
#387 = DIRECTION( '', ( 0.0208977598377043, 0.517946745200270, -0.855157560201752 ) );
#388 = CARTESIAN_POINT( '', ( 14814.5954740000, -316.601963301000, 2439.12714995000 ) );
#389 = DIRECTION( '', ( 0.999781617971528, -0.0108262909572960, 0.0178747808473933 ) );
#390 = DIRECTION( '', ( 0.0208977598377043, 0.517946745200270, -0.855157560201752 ) );
#391 = CARTESIAN_POINT( '', ( 14814.5954740000, -316.601963301000, 2439.12714995000 ) );
#392 = DIRECTION( '', ( 0.999781617971528, -0.0108262909572960, 0.0178747808473933 ) );
#393 = DIRECTION( '', ( 0.0208977598377043, 0.517946745200270, -0.855157560201752 ) );
#394 = CARTESIAN_POINT( '', ( 14816.5950373000, -316.623615883000, 2439.16289951000 ) );
#395 = DIRECTION( '', ( 0.999781617971528, -0.0108262909572960, 0.0178747808473933 ) );
#396 = DIRECTION( '', ( 0.0208977598377043, 0.517946745200270, -0.855157560201751 ) );
#397 = CARTESIAN_POINT( '', ( 14819.5943821000, -316.656094755000, 2439.21652385000 ) );
#398 = DIRECTION( '', ( 0.999781617971528, -0.0108262909572960, 0.0178747808473933 ) );
#399 = DIRECTION( '', ( 0.0208977598377043, 0.517946745200270, -0.855157560201752 ) );
#400 = DIRECTION( '', ( 0.999781617971529, -0.0108262909572949, 0.0178747808472916 ) );
#401 = CARTESIAN_POINT( '', ( 14819.5943821000, -316.656094755000, 2439.21652385000 ) );
#402 = DIRECTION( '', ( 0.999781617971528, -0.0108262909572960, 0.0178747808473933 ) );
#403 = DIRECTION( '', ( 0.0208977598377043, 0.517946745200270, -0.855157560201751 ) );
#404 = CARTESIAN_POINT( '', ( 14819.5943821000, -316.656094755000, 2439.21652385000 ) );
#405 = DIRECTION( '', ( 0.999781617971528, -0.0108262909572960, 0.0178747808473933 ) );
#406 = DIRECTION( '', ( 0.0208977598377043, 0.517946745200270, -0.855157560201751 ) );
#407 = CARTESIAN_POINT( '', ( 14819.5943821000, -316.656094755000, 2439.21652385000 ) );
#408 = DIRECTION( '', ( 0.999781617971528, -0.0108262909572960, 0.0178747808473933 ) );
#409 = DIRECTION( '', ( 0.0208977598377043, 0.517946745200270, -0.855157560201752 ) );
#410 = CARTESIAN_POINT( '', ( 14819.5943821000, -316.656094755000, 2439.21652385000 ) );
#411 = DIRECTION( '', ( 0.999781617971528, -0.0108262909572960, 0.0178747808473933 ) );
#412 = DIRECTION( '', ( 0.0208977598377043, 0.517946745200270, -0.855157560201752 ) );
#413 = DIRECTION( '', ( 0.0108271178384975, 0.999941383765769, 5.05164443893883E-005 ) );
#414 = DIRECTION( '', ( 0.0178742800008995, -0.000143026946045996, -0.999840232065975 ) );
#415 = DIRECTION( '', ( 0.999781617971529, -0.0108262909572949, 0.0178747808472916 ) );
#416 = DIRECTION( '', ( 0.999781617971529, -0.0108262909572949, 0.0178747808472916 ) );
#417 = DIRECTION( '', ( 0.999781617971529, -0.0108262909572949, 0.0178747808472916 ) );
#418 = DIRECTION( '', ( 0.999781617971529, -0.0108262909572949, 0.0178747808472916 ) );
#419 = DIRECTION( '', ( 0.999781617971529, -0.0108262909572949, 0.0178747808472916 ) );
ENDSEC;
END-ISO-10303-21;
