ISO-10303-21;
HEADER;
/* Generated by software containing ST-Developer
 * from STEP Tools, Inc. (www.steptools.com) 
 */

FILE_DESCRIPTION(
/* description */ (''),
/* implementation_level */ '2;1');

FILE_NAME(
/* name */ 'Jonction.stp',
/* time_stamp */ '2024-07-05T11:35:58+02:00',
/* author */ ('n.lesniewski'),
/* organization */ (''),
/* preprocessor_version */ 'ST-DEVELOPER v20',
/* originating_system */ 'Autodesk Inventor 2025',
/* authorisation */ '');

FILE_SCHEMA (('AUTOMOTIVE_DESIGN { 1 0 10303 214 3 1 1 }'));
ENDSEC;

DATA;
#10=MECHANICAL_DESIGN_GEOMETRIC_PRESENTATION_REPRESENTATION('',(#100,#101,
#102,#103,#104,#105,#106),#198);
#11=SHAPE_REPRESENTATION_RELATIONSHIP('SRR','None',#205,#12);
#12=ADVANCED_BREP_SHAPE_REPRESENTATION('',(#13),#197);
#13=MANIFOLD_SOLID_BREP('Solide1',#113);
#14=FACE_OUTER_BOUND('',#20,.T.);
#15=FACE_OUTER_BOUND('',#21,.T.);
#16=FACE_OUTER_BOUND('',#22,.T.);
#17=FACE_OUTER_BOUND('',#23,.T.);
#18=FACE_OUTER_BOUND('',#24,.T.);
#19=FACE_OUTER_BOUND('',#25,.T.);
#20=EDGE_LOOP('',(#70,#71,#72,#73));
#21=EDGE_LOOP('',(#74,#75,#76,#77));
#22=EDGE_LOOP('',(#78,#79,#80,#81));
#23=EDGE_LOOP('',(#82,#83,#84,#85));
#24=EDGE_LOOP('',(#86,#87,#88,#89));
#25=EDGE_LOOP('',(#90,#91,#92,#93));
#26=LINE('',#172,#38);
#27=LINE('',#174,#39);
#28=LINE('',#176,#40);
#29=LINE('',#177,#41);
#30=LINE('',#180,#42);
#31=LINE('',#182,#43);
#32=LINE('',#183,#44);
#33=LINE('',#186,#45);
#34=LINE('',#188,#46);
#35=LINE('',#189,#47);
#36=LINE('',#191,#48);
#37=LINE('',#192,#49);
#38=VECTOR('',#146,10.);
#39=VECTOR('',#147,10.);
#40=VECTOR('',#148,10.);
#41=VECTOR('',#149,10.);
#42=VECTOR('',#152,10.);
#43=VECTOR('',#153,10.);
#44=VECTOR('',#154,10.);
#45=VECTOR('',#157,10.);
#46=VECTOR('',#158,10.);
#47=VECTOR('',#159,10.);
#48=VECTOR('',#162,10.);
#49=VECTOR('',#163,10.);
#50=VERTEX_POINT('',#170);
#51=VERTEX_POINT('',#171);
#52=VERTEX_POINT('',#173);
#53=VERTEX_POINT('',#175);
#54=VERTEX_POINT('',#179);
#55=VERTEX_POINT('',#181);
#56=VERTEX_POINT('',#185);
#57=VERTEX_POINT('',#187);
#58=EDGE_CURVE('',#50,#51,#26,.T.);
#59=EDGE_CURVE('',#51,#52,#27,.T.);
#60=EDGE_CURVE('',#53,#52,#28,.T.);
#61=EDGE_CURVE('',#50,#53,#29,.T.);
#62=EDGE_CURVE('',#54,#50,#30,.T.);
#63=EDGE_CURVE('',#55,#53,#31,.T.);
#64=EDGE_CURVE('',#54,#55,#32,.T.);
#65=EDGE_CURVE('',#56,#54,#33,.T.);
#66=EDGE_CURVE('',#57,#55,#34,.T.);
#67=EDGE_CURVE('',#56,#57,#35,.T.);
#68=EDGE_CURVE('',#51,#56,#36,.T.);
#69=EDGE_CURVE('',#52,#57,#37,.T.);
#70=ORIENTED_EDGE('',*,*,#58,.T.);
#71=ORIENTED_EDGE('',*,*,#59,.T.);
#72=ORIENTED_EDGE('',*,*,#60,.F.);
#73=ORIENTED_EDGE('',*,*,#61,.F.);
#74=ORIENTED_EDGE('',*,*,#62,.T.);
#75=ORIENTED_EDGE('',*,*,#61,.T.);
#76=ORIENTED_EDGE('',*,*,#63,.F.);
#77=ORIENTED_EDGE('',*,*,#64,.F.);
#78=ORIENTED_EDGE('',*,*,#65,.T.);
#79=ORIENTED_EDGE('',*,*,#64,.T.);
#80=ORIENTED_EDGE('',*,*,#66,.F.);
#81=ORIENTED_EDGE('',*,*,#67,.F.);
#82=ORIENTED_EDGE('',*,*,#68,.T.);
#83=ORIENTED_EDGE('',*,*,#67,.T.);
#84=ORIENTED_EDGE('',*,*,#69,.F.);
#85=ORIENTED_EDGE('',*,*,#59,.F.);
#86=ORIENTED_EDGE('',*,*,#69,.T.);
#87=ORIENTED_EDGE('',*,*,#66,.T.);
#88=ORIENTED_EDGE('',*,*,#63,.T.);
#89=ORIENTED_EDGE('',*,*,#60,.T.);
#90=ORIENTED_EDGE('',*,*,#68,.F.);
#91=ORIENTED_EDGE('',*,*,#58,.F.);
#92=ORIENTED_EDGE('',*,*,#62,.F.);
#93=ORIENTED_EDGE('',*,*,#65,.F.);
#94=PLANE('',#136);
#95=PLANE('',#137);
#96=PLANE('',#138);
#97=PLANE('',#139);
#98=PLANE('',#140);
#99=PLANE('',#141);
#100=STYLED_ITEM('',(#217),#107);
#101=STYLED_ITEM('',(#217),#108);
#102=STYLED_ITEM('',(#217),#109);
#103=STYLED_ITEM('',(#217),#110);
#104=STYLED_ITEM('',(#217),#111);
#105=STYLED_ITEM('',(#217),#112);
#106=STYLED_ITEM('',(#216),#13);
#107=ADVANCED_FACE('',(#14),#94,.T.);
#108=ADVANCED_FACE('',(#15),#95,.T.);
#109=ADVANCED_FACE('',(#16),#96,.T.);
#110=ADVANCED_FACE('',(#17),#97,.T.);
#111=ADVANCED_FACE('',(#18),#98,.T.);
#112=ADVANCED_FACE('',(#19),#99,.F.);
#113=CLOSED_SHELL('',(#107,#108,#109,#110,#111,#112));
#114=DERIVED_UNIT_ELEMENT(#117,1.);
#115=DERIVED_UNIT_ELEMENT(#200,-3.);
#116=DIMENSIONAL_EXPONENTS(0.,1.,0.,0.,0.,0.,0.);
#117=(
CONVERSION_BASED_UNIT('gram',#119)
MASS_UNIT()
NAMED_UNIT(#116)
);
#118=(
MASS_UNIT()
NAMED_UNIT(*)
SI_UNIT(.KILO.,.GRAM.)
);
#119=MASS_MEASURE_WITH_UNIT(MASS_MEASURE(0.001),#118);
#120=DERIVED_UNIT((#114,#115));
#121=MEASURE_REPRESENTATION_ITEM('density measure',
POSITIVE_RATIO_MEASURE(7.85),#120);
#122=PROPERTY_DEFINITION_REPRESENTATION(#127,#124);
#123=PROPERTY_DEFINITION_REPRESENTATION(#128,#125);
#124=REPRESENTATION('material name',(#126),#197);
#125=REPRESENTATION('density',(#121),#197);
#126=DESCRIPTIVE_REPRESENTATION_ITEM('Acier','Acier');
#127=PROPERTY_DEFINITION('material property','material name',#207);
#128=PROPERTY_DEFINITION('material property','density of part',#207);
#129=DATE_TIME_ROLE('creation_date');
#130=APPLIED_DATE_AND_TIME_ASSIGNMENT(#131,#129,(#207));
#131=DATE_AND_TIME(#132,#133);
#132=CALENDAR_DATE(2024,1,7);
#133=LOCAL_TIME(0,0,0.,#134);
#134=COORDINATED_UNIVERSAL_TIME_OFFSET(0,0,.BEHIND.);
#135=AXIS2_PLACEMENT_3D('',#168,#142,#143);
#136=AXIS2_PLACEMENT_3D('',#169,#144,#145);
#137=AXIS2_PLACEMENT_3D('',#178,#150,#151);
#138=AXIS2_PLACEMENT_3D('',#184,#155,#156);
#139=AXIS2_PLACEMENT_3D('',#190,#160,#161);
#140=AXIS2_PLACEMENT_3D('',#193,#164,#165);
#141=AXIS2_PLACEMENT_3D('',#194,#166,#167);
#142=DIRECTION('axis',(0.,0.,1.));
#143=DIRECTION('refdir',(1.,0.,0.));
#144=DIRECTION('center_axis',(1.38777878078145E-18,1.,0.));
#145=DIRECTION('ref_axis',(-1.,1.38777878078145E-18,0.));
#146=DIRECTION('',(-1.,1.38777878078145E-18,0.));
#147=DIRECTION('',(0.,0.,1.));
#148=DIRECTION('',(-1.,1.38777878078145E-18,0.));
#149=DIRECTION('',(0.,0.,1.));
#150=DIRECTION('center_axis',(1.,0.,0.));
#151=DIRECTION('ref_axis',(0.,1.,0.));
#152=DIRECTION('',(0.,1.,0.));
#153=DIRECTION('',(0.,1.,0.));
#154=DIRECTION('',(0.,0.,1.));
#155=DIRECTION('center_axis',(0.,-1.,0.));
#156=DIRECTION('ref_axis',(1.,0.,0.));
#157=DIRECTION('',(1.,0.,0.));
#158=DIRECTION('',(1.,0.,0.));
#159=DIRECTION('',(0.,0.,1.));
#160=DIRECTION('center_axis',(-1.,0.,0.));
#161=DIRECTION('ref_axis',(0.,-1.,0.));
#162=DIRECTION('',(0.,-1.,0.));
#163=DIRECTION('',(0.,-1.,0.));
#164=DIRECTION('center_axis',(0.,0.,1.));
#165=DIRECTION('ref_axis',(1.,0.,0.));
#166=DIRECTION('center_axis',(0.,0.,1.));
#167=DIRECTION('ref_axis',(1.,0.,0.));
#168=CARTESIAN_POINT('',(0.,0.,0.));
#169=CARTESIAN_POINT('Origin',(0.,0.,0.));
#170=CARTESIAN_POINT('',(0.,0.,0.));
#171=CARTESIAN_POINT('',(-100.,1.38777878078145E-16,0.));
#172=CARTESIAN_POINT('',(0.,0.,0.));
#173=CARTESIAN_POINT('',(-100.,1.38777878078145E-16,30.));
#174=CARTESIAN_POINT('',(-100.,1.38777878078145E-16,0.));
#175=CARTESIAN_POINT('',(0.,0.,30.));
#176=CARTESIAN_POINT('',(0.,0.,30.));
#177=CARTESIAN_POINT('',(0.,0.,0.));
#178=CARTESIAN_POINT('Origin',(0.,-10.,0.));
#179=CARTESIAN_POINT('',(0.,-10.,0.));
#180=CARTESIAN_POINT('',(0.,-10.,0.));
#181=CARTESIAN_POINT('',(0.,-10.,30.));
#182=CARTESIAN_POINT('',(0.,-10.,30.));
#183=CARTESIAN_POINT('',(0.,-10.,0.));
#184=CARTESIAN_POINT('Origin',(-100.,-10.,0.));
#185=CARTESIAN_POINT('',(-100.,-10.,0.));
#186=CARTESIAN_POINT('',(-100.,-10.,0.));
#187=CARTESIAN_POINT('',(-100.,-10.,30.));
#188=CARTESIAN_POINT('',(-100.,-10.,30.));
#189=CARTESIAN_POINT('',(-100.,-10.,0.));
#190=CARTESIAN_POINT('Origin',(-100.,1.38777878078145E-16,0.));
#191=CARTESIAN_POINT('',(-100.,1.38777878078145E-16,0.));
#192=CARTESIAN_POINT('',(-100.,1.38777878078145E-16,30.));
#193=CARTESIAN_POINT('Origin',(-50.,-5.,30.));
#194=CARTESIAN_POINT('Origin',(-50.,-5.,0.));
#195=UNCERTAINTY_MEASURE_WITH_UNIT(LENGTH_MEASURE(0.01),#199,
'DISTANCE_ACCURACY_VALUE',
'Maximum model space distance between geometric entities at asserted c
onnectivities');
#196=UNCERTAINTY_MEASURE_WITH_UNIT(LENGTH_MEASURE(0.01),#199,
'DISTANCE_ACCURACY_VALUE',
'Maximum model space distance between geometric entities at asserted c
onnectivities');
#197=(
GEOMETRIC_REPRESENTATION_CONTEXT(3)
GLOBAL_UNCERTAINTY_ASSIGNED_CONTEXT((#195))
GLOBAL_UNIT_ASSIGNED_CONTEXT((#199,#201,#202))
REPRESENTATION_CONTEXT('','3D')
);
#198=(
GEOMETRIC_REPRESENTATION_CONTEXT(3)
GLOBAL_UNCERTAINTY_ASSIGNED_CONTEXT((#196))
GLOBAL_UNIT_ASSIGNED_CONTEXT((#199,#201,#202))
REPRESENTATION_CONTEXT('','3D')
);
#199=(
LENGTH_UNIT()
NAMED_UNIT(*)
SI_UNIT(.MILLI.,.METRE.)
);
#200=(
LENGTH_UNIT()
NAMED_UNIT(*)
SI_UNIT(.CENTI.,.METRE.)
);
#201=(
NAMED_UNIT(*)
PLANE_ANGLE_UNIT()
SI_UNIT($,.RADIAN.)
);
#202=(
NAMED_UNIT(*)
SI_UNIT($,.STERADIAN.)
SOLID_ANGLE_UNIT()
);
#203=SHAPE_DEFINITION_REPRESENTATION(#204,#205);
#204=PRODUCT_DEFINITION_SHAPE('',$,#207);
#205=SHAPE_REPRESENTATION('',(#135),#197);
#206=PRODUCT_DEFINITION_CONTEXT('part definition',#211,'design');
#207=PRODUCT_DEFINITION('Jonction','Jonction',#208,#206);
#208=PRODUCT_DEFINITION_FORMATION('',$,#213);
#209=PRODUCT_RELATED_PRODUCT_CATEGORY('Jonction','Jonction',(#213));
#210=APPLICATION_PROTOCOL_DEFINITION('international standard',
'automotive_design',2009,#211);
#211=APPLICATION_CONTEXT(
'Core Data for Automotive Mechanical Design Process');
#212=PRODUCT_CONTEXT('part definition',#211,'mechanical');
#213=PRODUCT('Jonction','Jonction',$,(#212));
#214=SURFACE_STYLE_RENDERING_WITH_PROPERTIES($,#229,(#215));
#215=SURFACE_STYLE_TRANSPARENT(0.);
#216=PRESENTATION_STYLE_ASSIGNMENT((#218));
#217=PRESENTATION_STYLE_ASSIGNMENT((#219));
#218=SURFACE_STYLE_USAGE(.BOTH.,#220);
#219=SURFACE_STYLE_USAGE(.BOTH.,#221);
#220=SURFACE_SIDE_STYLE('',(#222));
#221=SURFACE_SIDE_STYLE('',(#223,#214));
#222=SURFACE_STYLE_FILL_AREA(#224);
#223=SURFACE_STYLE_FILL_AREA(#225);
#224=FILL_AREA_STYLE('',(#226));
#225=FILL_AREA_STYLE('',(#227));
#226=FILL_AREA_STYLE_COLOUR('',#228);
#227=FILL_AREA_STYLE_COLOUR('',#229);
#228=COLOUR_RGB('',0.301960784313725,0.305882352941176,0.290196078431373);
#229=COLOUR_RGB('',0.0509803921568627,0.615686274509804,0.0509803921568627);
ENDSEC;
END-ISO-10303-21;
