ISO-10303-21;
HEADER;
/* Generated by software containing ST-Developer
 * from STEP Tools, Inc. (www.steptools.com) 
 */

FILE_DESCRIPTION(
/* description */ (''),
/* implementation_level */ '2;1');

FILE_NAME(
/* name */ 'DIA90.stp',
/* time_stamp */ '2024-06-26T15:45:59+04:00',
/* author */ ('Francois'),
/* organization */ (''),
/* preprocessor_version */ 'ST-DEVELOPER v19.2',
/* originating_system */ 'Autodesk Inventor 2023',
/* authorisation */ '');

FILE_SCHEMA (('AUTOMOTIVE_DESIGN { 1 0 10303 214 3 1 1 }'));
ENDSEC;

DATA;
#10=MECHANICAL_DESIGN_GEOMETRIC_PRESENTATION_REPRESENTATION('',(#13),#370);
#11=SHAPE_REPRESENTATION_RELATIONSHIP('SRR','None',#377,#12);
#12=ADVANCED_BREP_SHAPE_REPRESENTATION('',(#14),#369);
#13=STYLED_ITEM('',(#386),#14);
#14=MANIFOLD_SOLID_BREP('Solide1',#194);
#15=TOROIDAL_SURFACE('',#231,25.,2.5);
#16=FACE_BOUND('',#46,.T.);
#17=FACE_BOUND('',#48,.T.);
#18=FACE_BOUND('',#51,.T.);
#19=FACE_BOUND('',#55,.T.);
#20=PLANE('',#227);
#21=PLANE('',#228);
#22=PLANE('',#234);
#23=PLANE('',#240);
#24=PLANE('',#241);
#25=CYLINDRICAL_SURFACE('',#219,3.3235);
#26=CYLINDRICAL_SURFACE('',#225,45.);
#27=FACE_OUTER_BOUND('',#41,.T.);
#28=FACE_OUTER_BOUND('',#42,.T.);
#29=FACE_OUTER_BOUND('',#43,.T.);
#30=FACE_OUTER_BOUND('',#44,.T.);
#31=FACE_OUTER_BOUND('',#45,.T.);
#32=FACE_OUTER_BOUND('',#47,.T.);
#33=FACE_OUTER_BOUND('',#49,.T.);
#34=FACE_OUTER_BOUND('',#50,.T.);
#35=FACE_OUTER_BOUND('',#52,.T.);
#36=FACE_OUTER_BOUND('',#53,.T.);
#37=FACE_OUTER_BOUND('',#54,.T.);
#38=FACE_OUTER_BOUND('',#56,.T.);
#39=FACE_OUTER_BOUND('',#57,.T.);
#40=FACE_OUTER_BOUND('',#58,.T.);
#41=EDGE_LOOP('',(#128,#129,#130));
#42=EDGE_LOOP('',(#131,#132,#133,#134));
#43=EDGE_LOOP('',(#135,#136,#137,#138,#139));
#44=EDGE_LOOP('',(#140,#141,#142,#143,#144));
#45=EDGE_LOOP('',(#145));
#46=EDGE_LOOP('',(#146));
#47=EDGE_LOOP('',(#147));
#48=EDGE_LOOP('',(#148));
#49=EDGE_LOOP('',(#149,#150,#151,#152));
#50=EDGE_LOOP('',(#153));
#51=EDGE_LOOP('',(#154));
#52=EDGE_LOOP('',(#155,#156,#157,#158));
#53=EDGE_LOOP('',(#159,#160,#161,#162));
#54=EDGE_LOOP('',(#163));
#55=EDGE_LOOP('',(#164));
#56=EDGE_LOOP('',(#165));
#57=EDGE_LOOP('',(#166,#167,#168,#169));
#58=EDGE_LOOP('',(#170,#171,#172,#173));
#59=LINE('',#319,#67);
#60=LINE('',#323,#68);
#61=LINE('',#328,#69);
#62=LINE('',#334,#70);
#63=LINE('',#352,#71);
#64=LINE('',#355,#72);
#65=LINE('',#364,#73);
#66=LINE('',#366,#74);
#67=VECTOR('',#252,1.66175);
#68=VECTOR('',#257,3.3235);
#69=VECTOR('',#262,44.5);
#70=VECTOR('',#269,45.);
#71=VECTOR('',#294,28.5);
#72=VECTOR('',#297,29.5);
#73=VECTOR('',#310,20.5);
#74=VECTOR('',#313,21.5);
#75=CIRCLE('',#218,3.3235);
#76=CIRCLE('',#220,3.3235);
#77=CIRCLE('',#222,44.);
#78=CIRCLE('',#223,45.);
#79=CIRCLE('',#224,45.);
#80=CIRCLE('',#226,45.);
#81=CIRCLE('',#229,22.5);
#82=CIRCLE('',#230,22.);
#83=CIRCLE('',#232,2.5);
#84=CIRCLE('',#233,27.5);
#85=CIRCLE('',#235,28.);
#86=CIRCLE('',#237,29.);
#87=CIRCLE('',#239,30.);
#88=CIRCLE('',#242,20.);
#89=CIRCLE('',#244,21.);
#90=VERTEX_POINT('',#316);
#91=VERTEX_POINT('',#318);
#92=VERTEX_POINT('',#321);
#93=VERTEX_POINT('',#325);
#94=VERTEX_POINT('',#327);
#95=VERTEX_POINT('',#329);
#96=VERTEX_POINT('',#333);
#97=VERTEX_POINT('',#338);
#98=VERTEX_POINT('',#340);
#99=VERTEX_POINT('',#343);
#100=VERTEX_POINT('',#347);
#101=VERTEX_POINT('',#350);
#102=VERTEX_POINT('',#354);
#103=VERTEX_POINT('',#359);
#104=VERTEX_POINT('',#362);
#105=EDGE_CURVE('',#90,#90,#75,.T.);
#106=EDGE_CURVE('',#90,#91,#59,.T.);
#107=EDGE_CURVE('',#92,#92,#76,.T.);
#108=EDGE_CURVE('',#92,#90,#60,.T.);
#109=EDGE_CURVE('',#93,#93,#77,.T.);
#110=EDGE_CURVE('',#93,#94,#61,.T.);
#111=EDGE_CURVE('',#94,#95,#78,.T.);
#112=EDGE_CURVE('',#95,#94,#79,.T.);
#113=EDGE_CURVE('',#95,#96,#62,.T.);
#114=EDGE_CURVE('',#96,#96,#80,.T.);
#115=EDGE_CURVE('',#97,#97,#81,.T.);
#116=EDGE_CURVE('',#98,#98,#82,.T.);
#117=EDGE_CURVE('',#97,#99,#83,.T.);
#118=EDGE_CURVE('',#99,#99,#84,.T.);
#119=EDGE_CURVE('',#100,#100,#85,.T.);
#120=EDGE_CURVE('',#101,#101,#86,.T.);
#121=EDGE_CURVE('',#101,#100,#63,.T.);
#122=EDGE_CURVE('',#101,#102,#64,.T.);
#123=EDGE_CURVE('',#102,#102,#87,.T.);
#124=EDGE_CURVE('',#103,#103,#88,.T.);
#125=EDGE_CURVE('',#104,#104,#89,.T.);
#126=EDGE_CURVE('',#104,#103,#65,.T.);
#127=EDGE_CURVE('',#104,#98,#66,.T.);
#128=ORIENTED_EDGE('',*,*,#105,.T.);
#129=ORIENTED_EDGE('',*,*,#106,.T.);
#130=ORIENTED_EDGE('',*,*,#106,.F.);
#131=ORIENTED_EDGE('',*,*,#107,.F.);
#132=ORIENTED_EDGE('',*,*,#108,.T.);
#133=ORIENTED_EDGE('',*,*,#105,.F.);
#134=ORIENTED_EDGE('',*,*,#108,.F.);
#135=ORIENTED_EDGE('',*,*,#109,.T.);
#136=ORIENTED_EDGE('',*,*,#110,.T.);
#137=ORIENTED_EDGE('',*,*,#111,.T.);
#138=ORIENTED_EDGE('',*,*,#112,.T.);
#139=ORIENTED_EDGE('',*,*,#110,.F.);
#140=ORIENTED_EDGE('',*,*,#111,.F.);
#141=ORIENTED_EDGE('',*,*,#112,.F.);
#142=ORIENTED_EDGE('',*,*,#113,.T.);
#143=ORIENTED_EDGE('',*,*,#114,.T.);
#144=ORIENTED_EDGE('',*,*,#113,.F.);
#145=ORIENTED_EDGE('',*,*,#109,.F.);
#146=ORIENTED_EDGE('',*,*,#107,.T.);
#147=ORIENTED_EDGE('',*,*,#115,.F.);
#148=ORIENTED_EDGE('',*,*,#116,.T.);
#149=ORIENTED_EDGE('',*,*,#115,.T.);
#150=ORIENTED_EDGE('',*,*,#117,.T.);
#151=ORIENTED_EDGE('',*,*,#118,.F.);
#152=ORIENTED_EDGE('',*,*,#117,.F.);
#153=ORIENTED_EDGE('',*,*,#119,.F.);
#154=ORIENTED_EDGE('',*,*,#118,.T.);
#155=ORIENTED_EDGE('',*,*,#120,.F.);
#156=ORIENTED_EDGE('',*,*,#121,.T.);
#157=ORIENTED_EDGE('',*,*,#119,.T.);
#158=ORIENTED_EDGE('',*,*,#121,.F.);
#159=ORIENTED_EDGE('',*,*,#120,.T.);
#160=ORIENTED_EDGE('',*,*,#122,.T.);
#161=ORIENTED_EDGE('',*,*,#123,.F.);
#162=ORIENTED_EDGE('',*,*,#122,.F.);
#163=ORIENTED_EDGE('',*,*,#114,.F.);
#164=ORIENTED_EDGE('',*,*,#123,.T.);
#165=ORIENTED_EDGE('',*,*,#124,.F.);
#166=ORIENTED_EDGE('',*,*,#125,.F.);
#167=ORIENTED_EDGE('',*,*,#126,.T.);
#168=ORIENTED_EDGE('',*,*,#124,.T.);
#169=ORIENTED_EDGE('',*,*,#126,.F.);
#170=ORIENTED_EDGE('',*,*,#125,.T.);
#171=ORIENTED_EDGE('',*,*,#127,.T.);
#172=ORIENTED_EDGE('',*,*,#116,.F.);
#173=ORIENTED_EDGE('',*,*,#127,.F.);
#174=CONICAL_SURFACE('',#217,1.66175,1.02974425867665);
#175=CONICAL_SURFACE('',#221,44.5,0.785398163397466);
#176=CONICAL_SURFACE('',#236,28.5,0.654498469497876);
#177=CONICAL_SURFACE('',#238,29.5,0.654498469497873);
#178=CONICAL_SURFACE('',#243,20.5,0.654498469497874);
#179=CONICAL_SURFACE('',#245,21.5,0.654498469497876);
#180=ADVANCED_FACE('',(#27),#174,.F.);
#181=ADVANCED_FACE('',(#28),#25,.F.);
#182=ADVANCED_FACE('',(#29),#175,.T.);
#183=ADVANCED_FACE('',(#30),#26,.T.);
#184=ADVANCED_FACE('',(#31,#16),#20,.T.);
#185=ADVANCED_FACE('',(#32,#17),#21,.T.);
#186=ADVANCED_FACE('',(#33),#15,.F.);
#187=ADVANCED_FACE('',(#34,#18),#22,.T.);
#188=ADVANCED_FACE('',(#35),#176,.T.);
#189=ADVANCED_FACE('',(#36),#177,.F.);
#190=ADVANCED_FACE('',(#37,#19),#23,.T.);
#191=ADVANCED_FACE('',(#38),#24,.T.);
#192=ADVANCED_FACE('',(#39),#178,.T.);
#193=ADVANCED_FACE('',(#40),#179,.F.);
#194=CLOSED_SHELL('',(#180,#181,#182,#183,#184,#185,#186,#187,#188,#189,
#190,#191,#192,#193));
#195=DERIVED_UNIT_ELEMENT(#198,1.);
#196=DERIVED_UNIT_ELEMENT(#372,-3.);
#197=DIMENSIONAL_EXPONENTS(0.,1.,0.,0.,0.,0.,0.);
#198=(
CONVERSION_BASED_UNIT('gram',#200)
MASS_UNIT()
NAMED_UNIT(#197)
);
#199=(
MASS_UNIT()
NAMED_UNIT(*)
SI_UNIT(.KILO.,.GRAM.)
);
#200=MASS_MEASURE_WITH_UNIT(MASS_MEASURE(0.001),#199);
#201=DERIVED_UNIT((#195,#196));
#202=MEASURE_REPRESENTATION_ITEM('density measure',
POSITIVE_RATIO_MEASURE(1.),#201);
#203=PROPERTY_DEFINITION_REPRESENTATION(#208,#205);
#204=PROPERTY_DEFINITION_REPRESENTATION(#209,#206);
#205=REPRESENTATION('material name',(#207),#369);
#206=REPRESENTATION('density',(#202),#369);
#207=DESCRIPTIVE_REPRESENTATION_ITEM('G\X\E9n\X\E9rique','G\X\E9n\X\E9
rique');
#208=PROPERTY_DEFINITION('material property','material name',#379);
#209=PROPERTY_DEFINITION('material property','density of part',#379);
#210=DATE_TIME_ROLE('creation_date');
#211=APPLIED_DATE_AND_TIME_ASSIGNMENT(#212,#210,(#379));
#212=DATE_AND_TIME(#213,#214);
#213=CALENDAR_DATE(2024,26,6);
#214=LOCAL_TIME(0,0,0.,#215);
#215=COORDINATED_UNIVERSAL_TIME_OFFSET(0,0,.BEHIND.);
#216=AXIS2_PLACEMENT_3D('',#314,#246,#247);
#217=AXIS2_PLACEMENT_3D('',#315,#248,#249);
#218=AXIS2_PLACEMENT_3D('',#317,#250,#251);
#219=AXIS2_PLACEMENT_3D('',#320,#253,#254);
#220=AXIS2_PLACEMENT_3D('',#322,#255,#256);
#221=AXIS2_PLACEMENT_3D('',#324,#258,#259);
#222=AXIS2_PLACEMENT_3D('',#326,#260,#261);
#223=AXIS2_PLACEMENT_3D('',#330,#263,#264);
#224=AXIS2_PLACEMENT_3D('',#331,#265,#266);
#225=AXIS2_PLACEMENT_3D('',#332,#267,#268);
#226=AXIS2_PLACEMENT_3D('',#335,#270,#271);
#227=AXIS2_PLACEMENT_3D('',#336,#272,#273);
#228=AXIS2_PLACEMENT_3D('',#337,#274,#275);
#229=AXIS2_PLACEMENT_3D('',#339,#276,#277);
#230=AXIS2_PLACEMENT_3D('',#341,#278,#279);
#231=AXIS2_PLACEMENT_3D('',#342,#280,#281);
#232=AXIS2_PLACEMENT_3D('',#344,#282,#283);
#233=AXIS2_PLACEMENT_3D('',#345,#284,#285);
#234=AXIS2_PLACEMENT_3D('',#346,#286,#287);
#235=AXIS2_PLACEMENT_3D('',#348,#288,#289);
#236=AXIS2_PLACEMENT_3D('',#349,#290,#291);
#237=AXIS2_PLACEMENT_3D('',#351,#292,#293);
#238=AXIS2_PLACEMENT_3D('',#353,#295,#296);
#239=AXIS2_PLACEMENT_3D('',#356,#298,#299);
#240=AXIS2_PLACEMENT_3D('',#357,#300,#301);
#241=AXIS2_PLACEMENT_3D('',#358,#302,#303);
#242=AXIS2_PLACEMENT_3D('',#360,#304,#305);
#243=AXIS2_PLACEMENT_3D('',#361,#306,#307);
#244=AXIS2_PLACEMENT_3D('',#363,#308,#309);
#245=AXIS2_PLACEMENT_3D('',#365,#311,#312);
#246=DIRECTION('axis',(0.,0.,1.));
#247=DIRECTION('refdir',(1.,0.,0.));
#248=DIRECTION('center_axis',(0.,-1.,-6.73555739531044E-16));
#249=DIRECTION('ref_axis',(1.,0.,0.));
#250=DIRECTION('center_axis',(0.,-1.,-6.73555739531044E-16));
#251=DIRECTION('ref_axis',(1.,0.,0.));
#252=DIRECTION('',(0.857167300702112,0.515038074910054,4.51879570546549E-16));
#253=DIRECTION('center_axis',(0.,-1.,-6.73555739531044E-16));
#254=DIRECTION('ref_axis',(1.,0.,0.));
#255=DIRECTION('center_axis',(0.,1.,6.73555739531044E-16));
#256=DIRECTION('ref_axis',(1.,0.,0.));
#257=DIRECTION('',(0.,1.,6.73555739531044E-16));
#258=DIRECTION('center_axis',(0.,1.,6.73555739531044E-16));
#259=DIRECTION('ref_axis',(0.,-6.73007494486746E-16,1.));
#260=DIRECTION('center_axis',(0.,1.,6.73555739531044E-16));
#261=DIRECTION('ref_axis',(0.,-6.73555739531044E-16,1.));
#262=DIRECTION('',(8.65956056235509E-17,0.707106781186535,-0.70710678118656));
#263=DIRECTION('center_axis',(0.,-1.,-6.73555739531044E-16));
#264=DIRECTION('ref_axis',(0.,-6.72471432665655E-16,1.));
#265=DIRECTION('center_axis',(0.,-1.,-6.73555739531044E-16));
#266=DIRECTION('ref_axis',(0.,-6.72471432665655E-16,1.));
#267=DIRECTION('center_axis',(0.,-1.,-6.73555739531044E-16));
#268=DIRECTION('ref_axis',(0.,6.72471432665655E-16,-1.));
#269=DIRECTION('',(0.,1.,6.73555739531044E-16));
#270=DIRECTION('center_axis',(0.,-1.,-6.73555739531044E-16));
#271=DIRECTION('ref_axis',(1.,0.,0.));
#272=DIRECTION('center_axis',(0.,-1.,-6.73555739531044E-16));
#273=DIRECTION('ref_axis',(0.,6.73555739531044E-16,-1.));
#274=DIRECTION('center_axis',(0.,1.,6.73555739531044E-16));
#275=DIRECTION('ref_axis',(0.,-6.73555739531044E-16,1.));
#276=DIRECTION('center_axis',(0.,-1.,-6.73555739531044E-16));
#277=DIRECTION('ref_axis',(1.,0.,0.));
#278=DIRECTION('center_axis',(0.,-1.,-6.73555739531044E-16));
#279=DIRECTION('ref_axis',(1.,0.,0.));
#280=DIRECTION('center_axis',(0.,-1.,-6.73555739531044E-16));
#281=DIRECTION('ref_axis',(0.,6.45947941600091E-16,-1.));
#282=DIRECTION('center_axis',(-1.,8.24867880464022E-32,-1.22464679914735E-16));
#283=DIRECTION('ref_axis',(-1.22464679914735E-16,-6.45947941600091E-16,
1.));
#284=DIRECTION('center_axis',(0.,-1.,-6.73555739531044E-16));
#285=DIRECTION('ref_axis',(1.,0.,0.));
#286=DIRECTION('center_axis',(0.,1.,6.73555739531044E-16));
#287=DIRECTION('ref_axis',(0.,-6.73555739531044E-16,1.));
#288=DIRECTION('center_axis',(0.,-1.,-6.73555739531044E-16));
#289=DIRECTION('ref_axis',(1.,0.,0.));
#290=DIRECTION('center_axis',(0.,-1.,-6.73555739531044E-16));
#291=DIRECTION('ref_axis',(0.,6.72471432665654E-16,-1.));
#292=DIRECTION('center_axis',(0.,-1.,-6.73555739531044E-16));
#293=DIRECTION('ref_axis',(1.,0.,0.));
#294=DIRECTION('',(7.455177354799E-17,0.793353340291234,-0.608761429008722));
#295=DIRECTION('center_axis',(0.,1.,6.73555739531044E-16));
#296=DIRECTION('ref_axis',(0.,6.72471432665654E-16,-1.));
#297=DIRECTION('',(-7.45517735479897E-17,0.793353340291235,0.60876142900872));
#298=DIRECTION('center_axis',(0.,-1.,-6.73555739531044E-16));
#299=DIRECTION('ref_axis',(1.,0.,0.));
#300=DIRECTION('center_axis',(0.,1.,6.73555739531044E-16));
#301=DIRECTION('ref_axis',(0.,-6.73555739531044E-16,1.));
#302=DIRECTION('center_axis',(0.,1.,6.73555739531044E-16));
#303=DIRECTION('ref_axis',(0.,-6.73555739531044E-16,1.));
#304=DIRECTION('center_axis',(0.,-1.,-6.73555739531044E-16));
#305=DIRECTION('ref_axis',(1.,0.,0.));
#306=DIRECTION('center_axis',(0.,-1.,-6.73555739531044E-16));
#307=DIRECTION('ref_axis',(0.,6.72471432665654E-16,-1.));
#308=DIRECTION('center_axis',(0.,-1.,-6.73555739531044E-16));
#309=DIRECTION('ref_axis',(1.,0.,0.));
#310=DIRECTION('',(7.45517735479899E-17,0.793353340291235,-0.60876142900872));
#311=DIRECTION('center_axis',(0.,1.,6.73555739531044E-16));
#312=DIRECTION('ref_axis',(0.,6.72471432665655E-16,-1.));
#313=DIRECTION('',(-7.455177354799E-17,0.793353340291234,0.608761429008723));
#314=CARTESIAN_POINT('',(0.,0.,0.));
#315=CARTESIAN_POINT('Origin',(0.,14.998480133669,1.01023123782751E-14));
#316=CARTESIAN_POINT('',(-3.3235,14.,9.02276898973799E-15));
#317=CARTESIAN_POINT('Origin',(0.,14.,9.42978035343462E-15));
#318=CARTESIAN_POINT('',(0.,15.9969602673381,1.07748444031156E-14));
#319=CARTESIAN_POINT('',(-1.66175,14.998480133669,9.89880669642682E-15));
#320=CARTESIAN_POINT('Origin',(0.,7.,4.71489017671731E-15));
#321=CARTESIAN_POINT('',(-3.3235,0.,-4.07011363696622E-16));
#322=CARTESIAN_POINT('Origin',(0.,0.,9.86076131526265E-31));
#323=CARTESIAN_POINT('',(-3.3235,7.,4.30787881302069E-15));
#324=CARTESIAN_POINT('Origin',(0.,0.499999999999984,3.36777869765512E-16));
#325=CARTESIAN_POINT('',(-5.38844591624836E-15,2.96364525393659E-14,-44.));
#326=CARTESIAN_POINT('Origin',(0.,0.,7.39557098644699E-31));
#327=CARTESIAN_POINT('',(5.51091059616309E-15,0.999999999999999,-45.));
#328=CARTESIAN_POINT('',(5.44967825620572E-15,0.500000000000014,-44.5));
#329=CARTESIAN_POINT('',(-5.51091059616309E-15,0.999999999999939,45.));
#330=CARTESIAN_POINT('Origin',(0.,0.999999999999969,6.73555739531024E-16));
#331=CARTESIAN_POINT('Origin',(0.,0.999999999999969,6.73555739531024E-16));
#332=CARTESIAN_POINT('Origin',(0.,8.99999999999998,6.06200165577938E-15));
#333=CARTESIAN_POINT('',(-5.51091059616309E-15,18.,45.));
#334=CARTESIAN_POINT('',(-5.51091059616309E-15,8.99999999999995,45.));
#335=CARTESIAN_POINT('Origin',(0.,18.,1.21240033115588E-14));
#336=CARTESIAN_POINT('Origin',(0.,0.,0.));
#337=CARTESIAN_POINT('Origin',(0.,18.,-22.5));
#338=CARTESIAN_POINT('',(-2.75545529808155E-15,18.,22.5));
#339=CARTESIAN_POINT('Origin',(0.,18.,1.21240033115588E-14));
#340=CARTESIAN_POINT('',(-2.69422295812418E-15,18.,22.));
#341=CARTESIAN_POINT('Origin',(0.,18.,1.21240033115588E-14));
#342=CARTESIAN_POINT('Origin',(0.,18.,1.21240033115588E-14));
#343=CARTESIAN_POINT('',(-3.36777869765522E-15,18.,27.5));
#344=CARTESIAN_POINT('Origin',(-3.06161699786838E-15,18.,25.));
#345=CARTESIAN_POINT('Origin',(0.,18.,1.21240033115588E-14));
#346=CARTESIAN_POINT('Origin',(0.,18.,-28.));
#347=CARTESIAN_POINT('',(-3.42901103761259E-15,18.,28.));
#348=CARTESIAN_POINT('Origin',(0.,18.,1.21240033115588E-14));
#349=CARTESIAN_POINT('Origin',(0.,17.3483873135794,1.16851058466689E-14));
#350=CARTESIAN_POINT('',(-3.55147571752733E-15,16.6967746271588,29.));
#351=CARTESIAN_POINT('Origin',(0.,16.6967746271588,1.12462083817791E-14));
#352=CARTESIAN_POINT('',(-3.49024337756996E-15,17.3483873135794,28.5));
#353=CARTESIAN_POINT('Origin',(0.,17.3483873135794,1.16851058466689E-14));
#354=CARTESIAN_POINT('',(-3.67394039744206E-15,18.,30.));
#355=CARTESIAN_POINT('',(-3.61270805748469E-15,17.3483873135794,29.5));
#356=CARTESIAN_POINT('Origin',(0.,18.,1.21240033115588E-14));
#357=CARTESIAN_POINT('Origin',(0.,18.,-45.));
#358=CARTESIAN_POINT('Origin',(0.,18.,-20.));
#359=CARTESIAN_POINT('',(-2.44929359829471E-15,18.,20.));
#360=CARTESIAN_POINT('Origin',(0.,18.,1.21240033115588E-14));
#361=CARTESIAN_POINT('Origin',(0.,17.3483873135794,1.16851058466689E-14));
#362=CARTESIAN_POINT('',(-2.57175827820944E-15,16.6967746271588,21.));
#363=CARTESIAN_POINT('Origin',(0.,16.6967746271588,1.12462083817791E-14));
#364=CARTESIAN_POINT('',(-2.51052593825208E-15,17.3483873135794,20.5));
#365=CARTESIAN_POINT('Origin',(0.,17.3483873135794,1.16851058466689E-14));
#366=CARTESIAN_POINT('',(-2.63299061816681E-15,17.3483873135794,21.5));
#367=UNCERTAINTY_MEASURE_WITH_UNIT(LENGTH_MEASURE(0.01),#371,
'DISTANCE_ACCURACY_VALUE',
'Maximum model space distance between geometric entities at asserted c
onnectivities');
#368=UNCERTAINTY_MEASURE_WITH_UNIT(LENGTH_MEASURE(0.01),#371,
'DISTANCE_ACCURACY_VALUE',
'Maximum model space distance between geometric entities at asserted c
onnectivities');
#369=(
GEOMETRIC_REPRESENTATION_CONTEXT(3)
GLOBAL_UNCERTAINTY_ASSIGNED_CONTEXT((#367))
GLOBAL_UNIT_ASSIGNED_CONTEXT((#371,#373,#374))
REPRESENTATION_CONTEXT('','3D')
);
#370=(
GEOMETRIC_REPRESENTATION_CONTEXT(3)
GLOBAL_UNCERTAINTY_ASSIGNED_CONTEXT((#368))
GLOBAL_UNIT_ASSIGNED_CONTEXT((#371,#373,#374))
REPRESENTATION_CONTEXT('','3D')
);
#371=(
LENGTH_UNIT()
NAMED_UNIT(*)
SI_UNIT(.MILLI.,.METRE.)
);
#372=(
LENGTH_UNIT()
NAMED_UNIT(*)
SI_UNIT(.CENTI.,.METRE.)
);
#373=(
NAMED_UNIT(*)
PLANE_ANGLE_UNIT()
SI_UNIT($,.RADIAN.)
);
#374=(
NAMED_UNIT(*)
SI_UNIT($,.STERADIAN.)
SOLID_ANGLE_UNIT()
);
#375=SHAPE_DEFINITION_REPRESENTATION(#376,#377);
#376=PRODUCT_DEFINITION_SHAPE('',$,#379);
#377=SHAPE_REPRESENTATION('',(#216),#369);
#378=PRODUCT_DEFINITION_CONTEXT('part definition',#383,'design');
#379=PRODUCT_DEFINITION('Pi\X\E8ce5','Pi\X\E8ce5',#380,#378);
#380=PRODUCT_DEFINITION_FORMATION('',$,#385);
#381=PRODUCT_RELATED_PRODUCT_CATEGORY('Pi\X\E8ce5','Pi\X\E8ce5',(#385));
#382=APPLICATION_PROTOCOL_DEFINITION('international standard',
'automotive_design',2009,#383);
#383=APPLICATION_CONTEXT(
'Core Data for Automotive Mechanical Design Process');
#384=PRODUCT_CONTEXT('part definition',#383,'mechanical');
#385=PRODUCT('Pi\X\E8ce5','Pi\X\E8ce5',$,(#384));
#386=PRESENTATION_STYLE_ASSIGNMENT((#387));
#387=SURFACE_STYLE_USAGE(.BOTH.,#390);
#388=SURFACE_STYLE_RENDERING_WITH_PROPERTIES($,#394,(#389));
#389=SURFACE_STYLE_TRANSPARENT(0.);
#390=SURFACE_SIDE_STYLE('',(#391,#388));
#391=SURFACE_STYLE_FILL_AREA(#392);
#392=FILL_AREA_STYLE('',(#393));
#393=FILL_AREA_STYLE_COLOUR('',#394);
#394=COLOUR_RGB('',0.749019607843137,0.749019607843137,0.749019607843137);
ENDSEC;
END-ISO-10303-21;
