ISO-10303-21;
HEADER;
FILE_DESCRIPTION (( 'STEP AP214' ),
    '1' );
FILE_NAME ('BRCP01-G01-02-A-axe protection sortie.STEP',
    '2024-07-24T14:30:31',
    ( 'T' ),
    ( 'F' ),
    'SwSTEP 2.0',
    'SolidWorks 2001340',
    '' );
FILE_SCHEMA (( 'AUTOMOTIVE_DESIGN' ));
ENDSEC;

DATA;
#1 = ORIENTED_EDGE ( 'NONE', *, *, #107, .T. ) ;
#2 = VERTEX_POINT ( 'NONE', #202 ) ;
#3 = ORIENTED_EDGE ( 'NONE', *, *, #114, .F. ) ;
#4 = EDGE_CURVE ( 'NONE', #11, #2, #213, .T. ) ;
#5 = ORIENTED_EDGE ( 'NONE', *, *, #137, .F. ) ;
#6 = EDGE_CURVE ( 'NONE', #177, #181, #255, .T. ) ;
#7 = ORIENTED_EDGE ( 'NONE', *, *, #108, .F. ) ;
#8 = ADVANCED_FACE ( 'NONE', ( #276 ), #277, .T. ) ;
#9 = ORIENTED_EDGE ( 'NONE', *, *, #4, .T. ) ;
#10 = EDGE_CURVE ( 'NONE', #52, #2, #282, .T. ) ;
#11 = VERTEX_POINT ( 'NONE', #288 ) ;
#12 = ORIENTED_EDGE ( 'NONE', *, *, #134, .T. ) ;
#13 = EDGE_LOOP ( 'NONE', ( #124, #102, #174, #9 ) ) ;
#14 = ORIENTED_EDGE ( 'NONE', *, *, #171, .F. ) ;
#15 = DIRECTION ( 'NONE',  ( 1.000000000000000000, 0.0000000000000000000, 0.0000000000000000000 ) ) ;
#16 = CIRCLE ( 'NONE', #17, 3.500000000000013800 ) ;
#17 = AXIS2_PLACEMENT_3D ( 'NONE', #18, #19, #20 ) ;
#18 = CARTESIAN_POINT ( 'NONE',  ( 0.0000000000000000000, 0.0000000000000000000, -153.5000000000000000 ) ) ;
#19 = DIRECTION ( 'NONE',  ( 0.0000000000000000000, 0.0000000000000000000, -1.000000000000000000 ) ) ;
#20 = DIRECTION ( 'NONE',  ( 1.000000000000000000, 0.0000000000000000000, 0.0000000000000000000 ) ) ;
#21 = CIRCLE ( 'NONE', #22, 2.100000000000000100 ) ;
#22 = AXIS2_PLACEMENT_3D ( 'NONE', #23, #24, #25 ) ;
#23 = CARTESIAN_POINT ( 'NONE',  ( 0.0000000000000000000, 0.0000000000000000000, -128.5000000000000000 ) ) ;
#24 = DIRECTION ( 'NONE',  ( 0.0000000000000000000, 0.0000000000000000000, 1.000000000000000000 ) ) ;
#25 = DIRECTION ( 'NONE',  ( 1.000000000000000000, 0.0000000000000000000, 0.0000000000000000000 ) ) ;
#26 = CIRCLE ( 'NONE', #27, 3.500000000000013800 ) ;
#27 = AXIS2_PLACEMENT_3D ( 'NONE', #28, #29, #30 ) ;
#28 = CARTESIAN_POINT ( 'NONE',  ( 0.0000000000000000000, 0.0000000000000000000, -153.5000000000000000 ) ) ;
#29 = DIRECTION ( 'NONE',  ( 0.0000000000000000000, 0.0000000000000000000, -1.000000000000000000 ) ) ;
#30 = DIRECTION ( 'NONE',  ( 1.000000000000000000, 0.0000000000000000000, 0.0000000000000000000 ) ) ;
#31 = CLOSED_SHELL ( 'NONE', ( #163, #170, #165, #101, #173, #169, #119, #130, #150, #8, #142, #121, #147, #155 ) ) ;
#32 = EDGE_CURVE ( 'NONE', #84, #11, #306, .T. ) ;
#33 = FACE_OUTER_BOUND ( 'NONE', #154, .T. ) ;
#34 = CONICAL_SURFACE ( 'NONE', #35, 4.000000000000000000, 0.7853981633974340700 ) ;
#35 = AXIS2_PLACEMENT_3D ( 'NONE', #36, #37, #38 ) ;
#36 = CARTESIAN_POINT ( 'NONE',  ( 0.0000000000000000000, 0.0000000000000000000, -153.0000000000000000 ) ) ;
#37 = DIRECTION ( 'NONE',  ( 0.0000000000000000000, 0.0000000000000000000, 1.000000000000000000 ) ) ;
#38 = DIRECTION ( 'NONE',  ( 1.000000000000000000, 0.0000000000000000000, 0.0000000000000000000 ) ) ;
#39 = CARTESIAN_POINT ( 'NONE',  ( -2.100000000000000100, 0.0000000000000000000, -128.5000000000000000 ) ) ;
#40 = CARTESIAN_POINT ( 'NONE',  ( -3.500000000000000400, 0.0000000000000000000, 153.5000000000000000 ) ) ;
#41 = CIRCLE ( 'NONE', #42, 2.100000000000000100 ) ;
#42 = AXIS2_PLACEMENT_3D ( 'NONE', #43, #44, #45 ) ;
#43 = CARTESIAN_POINT ( 'NONE',  ( 0.0000000000000000000, 0.0000000000000000000, 128.5000000000000000 ) ) ;
#44 = DIRECTION ( 'NONE',  ( 0.0000000000000000000, 0.0000000000000000000, 1.000000000000000000 ) ) ;
#45 = DIRECTION ( 'NONE',  ( 1.000000000000000000, 0.0000000000000000000, 0.0000000000000000000 ) ) ;
#46 = CARTESIAN_POINT ( 'NONE',  ( 4.000000000000000000, 4.898425415289509000E-016, 153.0000000000000000 ) ) ;
#47 = CARTESIAN_POINT ( 'NONE',  ( 2.100000000000000100, 2.571673343026992500E-016, -153.5000000000000000 ) ) ;
#48 = CARTESIAN_POINT ( 'NONE',  ( -2.100000000000000100, 0.0000000000000000000, -153.5000000000000000 ) ) ;
#49 = ORIENTED_EDGE ( 'NONE', *, *, #157, .T. ) ;
#50 = EDGE_CURVE ( 'NONE', #2, #11, #315, .T. ) ;
#51 = ORIENTED_EDGE ( 'NONE', *, *, #69, .T. ) ;
#52 = VERTEX_POINT ( 'NONE', #320 ) ;
#53 = FACE_OUTER_BOUND ( 'NONE', #145, .T. ) ;
#54 = PLANE ( 'NONE',  #55 ) ;
#55 = AXIS2_PLACEMENT_3D ( 'NONE', #56, #57, #58 ) ;
#56 = CARTESIAN_POINT ( 'NONE',  ( 0.0000000000000000000, 0.0000000000000000000, -128.5000000000000000 ) ) ;
#57 = DIRECTION ( 'NONE',  ( 0.0000000000000000000, 0.0000000000000000000, -1.000000000000000000 ) ) ;
#58 = DIRECTION ( 'NONE',  ( 1.000000000000000000, 0.0000000000000000000, 0.0000000000000000000 ) ) ;
#59 = CARTESIAN_POINT ( 'NONE',  ( 2.100000000000000100, 0.0000000000000000000, 153.5000000000000000 ) ) ;
#60 = FACE_OUTER_BOUND ( 'NONE', #369, .T. ) ;
#61 = CYLINDRICAL_SURFACE ( 'NONE', #62, 2.100000000000000100 ) ;
#62 = AXIS2_PLACEMENT_3D ( 'NONE', #63, #64, #65 ) ;
#63 = CARTESIAN_POINT ( 'NONE',  ( 0.0000000000000000000, 0.0000000000000000000, 128.5000000000000000 ) ) ;
#64 = DIRECTION ( 'NONE',  ( 0.0000000000000000000, 0.0000000000000000000, 1.000000000000000000 ) ) ;
#65 = DIRECTION ( 'NONE',  ( 1.000000000000000000, 0.0000000000000000000, 0.0000000000000000000 ) ) ;
#66 = CARTESIAN_POINT ( 'NONE',  ( 3.500000000000000400, 4.592273826833915700E-016, 153.5000000000000000 ) ) ;
#67 =( LENGTH_UNIT ( ) NAMED_UNIT ( * ) SI_UNIT ( .MILLI., .METRE. ) );
#68 =( NAMED_UNIT ( * ) PLANE_ANGLE_UNIT ( ) SI_UNIT ( $, .RADIAN. ) );
#69 = EDGE_CURVE ( 'NONE', #122, #113, #321, .T. ) ;
#70 = ORIENTED_EDGE ( 'NONE', *, *, #106, .T. ) ;
#71 = EDGE_LOOP ( 'NONE', ( #152, #115, #85, #125 ) ) ;
#72 =( NAMED_UNIT ( * ) SI_UNIT ( $, .STERADIAN. ) SOLID_ANGLE_UNIT ( ) );
#73 = UNCERTAINTY_MEASURE_WITH_UNIT (LENGTH_MEASURE( 1.000000000000000100E-005 ), #67, 'distance_accuracy_value', 'NONE');
#74 =( GEOMETRIC_REPRESENTATION_CONTEXT ( 3 ) GLOBAL_UNCERTAINTY_ASSIGNED_CONTEXT ( ( #73 ) ) GLOBAL_UNIT_ASSIGNED_CONTEXT ( ( #67, #68, #72 ) ) REPRESENTATION_CONTEXT ( 'NONE', 'WORKASPACE' ) );
#75 = ADVANCED_BREP_SHAPE_REPRESENTATION ( 'BRCP01-G01-02-A-axe protection sortie', ( #143, #76 ), #74 ) ;
#76 = AXIS2_PLACEMENT_3D ( 'NONE', #77, #78, #79 ) ;
#77 = CARTESIAN_POINT ( 'NONE',  ( 0.0000000000000000000, 0.0000000000000000000, 0.0000000000000000000 ) ) ;
#78 = DIRECTION ( 'NONE',  ( 0.0000000000000000000, 0.0000000000000000000, 1.000000000000000000 ) ) ;
#79 = DIRECTION ( 'NONE',  ( 1.000000000000000000, 0.0000000000000000000, 0.0000000000000000000 ) ) ;
#80 = APPLICATION_CONTEXT ( 'automotive_design' ) ;
#81 = APPLICATION_PROTOCOL_DEFINITION ( 'draft international standard', 'automotive_design', 1998, #80 ) ;
#82 = PRODUCT_CONTEXT ( 'NONE', #80, 'mechanical' ) ;
#83 = PRODUCT ( 'BRCP01-G01-02-A-axe protection sortie', 'BRCP01-G01-02-A-axe protection sortie', '', ( #82 ) ) ;
#84 = VERTEX_POINT ( 'NONE', #334 ) ;
#85 = ORIENTED_EDGE ( 'NONE', *, *, #186, .T. ) ;
#86 = ORIENTED_EDGE ( 'NONE', *, *, #6, .T. ) ;
#87 = EDGE_CURVE ( 'NONE', #118, #181, #335, .T. ) ;
#88 = ORIENTED_EDGE ( 'NONE', *, *, #166, .T. ) ;
#89 = EDGE_LOOP ( 'NONE', ( #144, #51 ) ) ;
#90 = APPLICATION_CONTEXT ( 'automotive_design' ) ;
#91 = APPLICATION_PROTOCOL_DEFINITION ( 'draft international standard', 'automotive_design', 1998, #90 ) ;
#92 = PRODUCT_DEFINITION_CONTEXT ( 'detailed design', #90, 'design' ) ;
#93 = PRODUCT_DEFINITION ( 'UNKNOWN', '', #94, #92 ) ;
#94 = PRODUCT_DEFINITION_FORMATION_WITH_SPECIFIED_SOURCE ( 'ANY', '', #83, .NOT_KNOWN. ) ;
#95 = PRODUCT_RELATED_PRODUCT_CATEGORY ( 'part', '', ( #83 ) ) ;
#96 = PRODUCT_DEFINITION_SHAPE ( 'NONE', 'NONE',  #93 ) ;
#97 = SHAPE_DEFINITION_REPRESENTATION ( #96, #75 ) ;
#98 = ORIENTED_EDGE ( 'NONE', *, *, #156, .F. ) ;
#99 = VERTEX_POINT ( 'NONE', #341 ) ;
#100 = EDGE_LOOP ( 'NONE', ( #127, #178, #116, #138 ) ) ;
#101 = ADVANCED_FACE ( 'NONE', ( #353 ), #354, .F. ) ;
#102 = ORIENTED_EDGE ( 'NONE', *, *, #171, .T. ) ;
#103 = EDGE_LOOP ( 'NONE', ( #12, #148, #159, #128 ) ) ;
#104 = EDGE_LOOP ( 'NONE', ( #180, #112, #88, #14 ) ) ;
#105 = ORIENTED_EDGE ( 'NONE', *, *, #172, .T. ) ;
#106 = EDGE_CURVE ( 'NONE', #52, #164, #16, .T. ) ;
#107 = EDGE_CURVE ( 'NONE', #99, #177, #21, .T. ) ;
#108 = EDGE_CURVE ( 'NONE', #164, #52, #26, .T. ) ;
#109 = ORIENTED_EDGE ( 'NONE', *, *, #156, .T. ) ;
#110 = ORIENTED_EDGE ( 'NONE', *, *, #251, .T. ) ;
#111 = EDGE_LOOP ( 'NONE', ( #129, #284, #168, #149 ) ) ;
#112 = ORIENTED_EDGE ( 'NONE', *, *, #133, .F. ) ;
#113 = VERTEX_POINT ( 'NONE', #40 ) ;
#114 = EDGE_CURVE ( 'NONE', #160, #126, #41, .T. ) ;
#115 = ORIENTED_EDGE ( 'NONE', *, *, #172, .F. ) ;
#116 = ORIENTED_EDGE ( 'NONE', *, *, #50, .T. ) ;
#117 = EDGE_LOOP ( 'NONE', ( #139, #135 ) ) ;
#118 = VERTEX_POINT ( 'NONE', #47 ) ;
#119 = ADVANCED_FACE ( 'NONE', ( #53 ), #54, .T. ) ;
#120 = ORIENTED_EDGE ( 'NONE', *, *, #114, .T. ) ;
#121 = ADVANCED_FACE ( 'NONE', ( #60 ), #61, .F. ) ;
#122 = VERTEX_POINT ( 'NONE', #66 ) ;
#123 = ORIENTED_EDGE ( 'NONE', *, *, #167, .F. ) ;
#124 = ORIENTED_EDGE ( 'NONE', *, *, #285, .F. ) ;
#125 = ORIENTED_EDGE ( 'NONE', *, *, #167, .T. ) ;
#126 = VERTEX_POINT ( 'NONE', #187 ) ;
#127 = ORIENTED_EDGE ( 'NONE', *, *, #140, .T. ) ;
#128 = ORIENTED_EDGE ( 'NONE', *, *, #6, .F. ) ;
#129 = ORIENTED_EDGE ( 'NONE', *, *, #69, .F. ) ;
#130 = ADVANCED_FACE ( 'NONE', ( #192 ), #193, .T. ) ;
#131 = EDGE_CURVE ( 'NONE', #122, #179, #198, .T. ) ;
#132 = EDGE_LOOP ( 'NONE', ( #5, #1, #86, #151 ) ) ;
#133 = EDGE_CURVE ( 'NONE', #113, #122, #203, .T. ) ;
#134 = EDGE_CURVE ( 'NONE', #177, #99, #208, .T. ) ;
#135 = ORIENTED_EDGE ( 'NONE', *, *, #87, .T. ) ;
#136 = EDGE_LOOP ( 'NONE', ( #123, #98 ) ) ;
#137 = EDGE_CURVE ( 'NONE', #99, #118, #218, .T. ) ;
#138 = ORIENTED_EDGE ( 'NONE', *, *, #32, .F. ) ;
#139 = ORIENTED_EDGE ( 'NONE', *, *, #158, .T. ) ;
#140 = EDGE_CURVE ( 'NONE', #84, #179, #222, .T. ) ;
#141 = ORIENTED_EDGE ( 'NONE', *, *, #50, .F. ) ;
#142 = ADVANCED_FACE ( 'NONE', ( #231, #232 ), #233, .T. ) ;
#143 = MANIFOLD_SOLID_BREP ( 'NONE', #31 ) ;
#144 = ORIENTED_EDGE ( 'NONE', *, *, #133, .T. ) ;
#145 = EDGE_LOOP ( 'NONE', ( #176, #161 ) ) ;
#146 = VERTEX_POINT ( 'NONE', #263 ) ;
#147 = ADVANCED_FACE ( 'NONE', ( #264 ), #265, .F. ) ;
#148 = ORIENTED_EDGE ( 'NONE', *, *, #137, .T. ) ;
#149 = ORIENTED_EDGE ( 'NONE', *, *, #166, .F. ) ;
#150 = ADVANCED_FACE ( 'NONE', ( #270 ), #271, .T. ) ;
#151 = ORIENTED_EDGE ( 'NONE', *, *, #87, .F. ) ;
#152 = ORIENTED_EDGE ( 'NONE', *, *, #251, .F. ) ;
#153 = ORIENTED_EDGE ( 'NONE', *, *, #157, .F. ) ;
#154 = EDGE_LOOP ( 'NONE', ( #153, #303, #234, #185 ) ) ;
#155 = ADVANCED_FACE ( 'NONE', ( #289 ), #290, .T. ) ;
#156 = EDGE_CURVE ( 'NONE', #146, #183, #295, .T. ) ;
#157 = EDGE_CURVE ( 'NONE', #164, #11, #300, .T. ) ;
#158 = EDGE_CURVE ( 'NONE', #181, #118, #310, .T. ) ;
#159 = ORIENTED_EDGE ( 'NONE', *, *, #158, .F. ) ;
#160 = VERTEX_POINT ( 'NONE', #326 ) ;
#161 = ORIENTED_EDGE ( 'NONE', *, *, #107, .F. ) ;
#162 = EDGE_LOOP ( 'NONE', ( #105, #120 ) ) ;
#163 = ADVANCED_FACE ( 'NONE', ( #327, #328 ), #329, .F. ) ;
#164 = VERTEX_POINT ( 'NONE', #342 ) ;
#165 = ADVANCED_FACE ( 'NONE', ( #343 ), #344, .F. ) ;
#166 = EDGE_CURVE ( 'NONE', #113, #84, #349, .T. ) ;
#167 = EDGE_CURVE ( 'NONE', #183, #146, #359, .T. ) ;
#168 = ORIENTED_EDGE ( 'NONE', *, *, #140, .F. ) ;
#169 = ADVANCED_FACE ( 'NONE', ( #364 ), #365, .T. ) ;
#170 = ADVANCED_FACE ( 'NONE', ( #371 ), #372, .T. ) ;
#171 = EDGE_CURVE ( 'NONE', #179, #84, #377, .T. ) ;
#172 = EDGE_CURVE ( 'NONE', #126, #160, #382, .T. ) ;
#173 = ADVANCED_FACE ( 'NONE', ( #33 ), #34, .T. ) ;
#174 = ORIENTED_EDGE ( 'NONE', *, *, #32, .T. ) ;
#175 = ORIENTED_EDGE ( 'NONE', *, *, #108, .T. ) ;
#176 = ORIENTED_EDGE ( 'NONE', *, *, #134, .F. ) ;
#177 = VERTEX_POINT ( 'NONE', #39 ) ;
#178 = ORIENTED_EDGE ( 'NONE', *, *, #285, .T. ) ;
#179 = VERTEX_POINT ( 'NONE', #46 ) ;
#180 = ORIENTED_EDGE ( 'NONE', *, *, #131, .F. ) ;
#181 = VERTEX_POINT ( 'NONE', #48 ) ;
#182 = ORIENTED_EDGE ( 'NONE', *, *, #10, .F. ) ;
#183 = VERTEX_POINT ( 'NONE', #59 ) ;
#184 = ORIENTED_EDGE ( 'NONE', *, *, #186, .F. ) ;
#185 = ORIENTED_EDGE ( 'NONE', *, *, #4, .F. ) ;
#186 = EDGE_CURVE ( 'NONE', #126, #183, #188, .T. ) ;
#187 = CARTESIAN_POINT ( 'NONE',  ( 2.100000000000000100, 0.0000000000000000000, 128.5000000000000000 ) ) ;
#188 = LINE ( 'NONE', #189, #190 ) ;
#189 = CARTESIAN_POINT ( 'NONE',  ( 2.100000000000000100, 0.0000000000000000000, 128.5000000000000000 ) ) ;
#190 = VECTOR ( 'NONE', #191, 1000.000000000000000 ) ;
#191 = DIRECTION ( 'NONE',  ( 0.0000000000000000000, 0.0000000000000000000, 1.000000000000000000 ) ) ;
#192 = FACE_OUTER_BOUND ( 'NONE', #13, .T. ) ;
#193 = CYLINDRICAL_SURFACE ( 'NONE', #194, 4.000000000000000000 ) ;
#194 = AXIS2_PLACEMENT_3D ( 'NONE', #195, #196, #197 ) ;
#195 = CARTESIAN_POINT ( 'NONE',  ( 0.0000000000000000000, 0.0000000000000000000, 153.5000000000000000 ) ) ;
#196 = DIRECTION ( 'NONE',  ( 0.0000000000000000000, 0.0000000000000000000, -1.000000000000000000 ) ) ;
#197 = DIRECTION ( 'NONE',  ( -1.000000000000000000, 0.0000000000000000000, 0.0000000000000000000 ) ) ;
#198 = LINE ( 'NONE', #199, #200 ) ;
#199 = CARTESIAN_POINT ( 'NONE',  ( 3.500000000000000400, 4.286122238378320900E-016, 153.5000000000000000 ) ) ;
#200 = VECTOR ( 'NONE', #201, 999.9999999999998900 ) ;
#201 = DIRECTION ( 'NONE',  ( 0.7071067811865469100, 8.659274570719350500E-017, -0.7071067811865482400 ) ) ;
#202 = CARTESIAN_POINT ( 'NONE',  ( 4.000000000000000000, 4.898425415289509000E-016, -153.0000000000000000 ) ) ;
#203 = CIRCLE ( 'NONE', #204, 3.500000000000000400 ) ;
#204 = AXIS2_PLACEMENT_3D ( 'NONE', #205, #206, #207 ) ;
#205 = CARTESIAN_POINT ( 'NONE',  ( 0.0000000000000000000, 0.0000000000000000000, 153.5000000000000000 ) ) ;
#206 = DIRECTION ( 'NONE',  ( 0.0000000000000000000, 0.0000000000000000000, 1.000000000000000000 ) ) ;
#207 = DIRECTION ( 'NONE',  ( 1.000000000000000000, 0.0000000000000000000, 0.0000000000000000000 ) ) ;
#208 = CIRCLE ( 'NONE', #209, 2.100000000000000100 ) ;
#209 = AXIS2_PLACEMENT_3D ( 'NONE', #210, #211, #212 ) ;
#210 = CARTESIAN_POINT ( 'NONE',  ( 0.0000000000000000000, 0.0000000000000000000, -128.5000000000000000 ) ) ;
#211 = DIRECTION ( 'NONE',  ( 0.0000000000000000000, 0.0000000000000000000, 1.000000000000000000 ) ) ;
#212 = DIRECTION ( 'NONE',  ( 1.000000000000000000, 0.0000000000000000000, 0.0000000000000000000 ) ) ;
#213 = CIRCLE ( 'NONE', #214, 4.000000000000000000 ) ;
#214 = AXIS2_PLACEMENT_3D ( 'NONE', #215, #216, #217 ) ;
#215 = CARTESIAN_POINT ( 'NONE',  ( 0.0000000000000000000, 0.0000000000000000000, -153.0000000000000000 ) ) ;
#216 = DIRECTION ( 'NONE',  ( 0.0000000000000000000, 0.0000000000000000000, 1.000000000000000000 ) ) ;
#217 = DIRECTION ( 'NONE',  ( 1.000000000000000000, 0.0000000000000000000, 0.0000000000000000000 ) ) ;
#218 = LINE ( 'NONE', #219, #220 ) ;
#219 = CARTESIAN_POINT ( 'NONE',  ( 2.100000000000000100, 2.571673343026992500E-016, -128.5000000000000000 ) ) ;
#220 = VECTOR ( 'NONE', #221, 1000.000000000000000 ) ;
#221 = DIRECTION ( 'NONE',  ( 0.0000000000000000000, 0.0000000000000000000, -1.000000000000000000 ) ) ;
#222 = CIRCLE ( 'NONE', #223, 4.000000000000000000 ) ;
#223 = AXIS2_PLACEMENT_3D ( 'NONE', #224, #225, #226 ) ;
#224 = CARTESIAN_POINT ( 'NONE',  ( 0.0000000000000000000, 0.0000000000000000000, 153.0000000000000000 ) ) ;
#225 = DIRECTION ( 'NONE',  ( 0.0000000000000000000, 0.0000000000000000000, -1.000000000000000000 ) ) ;
#226 = DIRECTION ( 'NONE',  ( 1.000000000000000000, 0.0000000000000000000, 0.0000000000000000000 ) ) ;
#227 = LINE ( 'NONE', #228, #229 ) ;
#228 = CARTESIAN_POINT ( 'NONE',  ( -2.100000000000000100, 2.571673343026992500E-016, 128.5000000000000000 ) ) ;
#229 = VECTOR ( 'NONE', #230, 1000.000000000000000 ) ;
#230 = DIRECTION ( 'NONE',  ( 0.0000000000000000000, 0.0000000000000000000, 1.000000000000000000 ) ) ;
#231 = FACE_OUTER_BOUND ( 'NONE', #89, .T. ) ;
#232 = FACE_BOUND ( 'NONE', #136, .T. ) ;
#233 = PLANE ( 'NONE',  #235 ) ;
#234 = ORIENTED_EDGE ( 'NONE', *, *, #10, .T. ) ;
#235 = AXIS2_PLACEMENT_3D ( 'NONE', #236, #237, #238 ) ;
#236 = CARTESIAN_POINT ( 'NONE',  ( 0.0000000000000000000, 0.0000000000000000000, 153.5000000000000000 ) ) ;
#237 = DIRECTION ( 'NONE',  ( 0.0000000000000000000, 0.0000000000000000000, 1.000000000000000000 ) ) ;
#238 = DIRECTION ( 'NONE',  ( 1.000000000000000000, 0.0000000000000000000, 0.0000000000000000000 ) ) ;
#239 = COLOUR_RGB ( '',0.7529411764705882200, 0.7529411764705882200, 0.7529411764705882200 ) ;
#240 = FILL_AREA_STYLE_COLOUR ( '', #239 ) ;
#241 = FILL_AREA_STYLE ('',( #240 ) ) ;
#242 = SURFACE_STYLE_FILL_AREA ( #241 ) ;
#243 = SURFACE_SIDE_STYLE ('',( #242 ) ) ;
#244 = SURFACE_STYLE_USAGE ( .BOTH. , #243 ) ;
#245 = PRESENTATION_STYLE_ASSIGNMENT (( #244 ) ) ;
#246 = STYLED_ITEM ( 'NONE', ( #245 ), #143 ) ;
#247 = PRESENTATION_LAYER_ASSIGNMENT (  '', '', ( #246 ) ) ;
#248 = MECHANICAL_DESIGN_GEOMETRIC_PRESENTATION_REPRESENTATION (  '', ( #246 ), #254 ) ;
#249 =( LENGTH_UNIT ( ) NAMED_UNIT ( * ) SI_UNIT ( .MILLI., .METRE. ) );
#250 =( NAMED_UNIT ( * ) PLANE_ANGLE_UNIT ( ) SI_UNIT ( $, .RADIAN. ) );
#251 = EDGE_CURVE ( 'NONE', #160, #146, #227, .T. ) ;
#252 =( NAMED_UNIT ( * ) SI_UNIT ( $, .STERADIAN. ) SOLID_ANGLE_UNIT ( ) );
#253 = UNCERTAINTY_MEASURE_WITH_UNIT (LENGTH_MEASURE( 1.000000000000000100E-005 ), #249, 'distance_accuracy_value', 'NONE');
#254 =( GEOMETRIC_REPRESENTATION_CONTEXT ( 3 ) GLOBAL_UNCERTAINTY_ASSIGNED_CONTEXT ( ( #253 ) ) GLOBAL_UNIT_ASSIGNED_CONTEXT ( ( #249, #250, #252 ) ) REPRESENTATION_CONTEXT ( 'NONE', 'WORKASPACE' ) );
#255 = LINE ( 'NONE', #256, #257 ) ;
#256 = CARTESIAN_POINT ( 'NONE',  ( -2.100000000000000100, 0.0000000000000000000, -128.5000000000000000 ) ) ;
#257 = VECTOR ( 'NONE', #258, 1000.000000000000000 ) ;
#258 = DIRECTION ( 'NONE',  ( 0.0000000000000000000, 0.0000000000000000000, -1.000000000000000000 ) ) ;
#259 = LINE ( 'NONE', #260, #261 ) ;
#260 = CARTESIAN_POINT ( 'NONE',  ( 4.000000000000000000, 4.898425415289509000E-016, 153.5000000000000000 ) ) ;
#261 = VECTOR ( 'NONE', #262, 1000.000000000000000 ) ;
#262 = DIRECTION ( 'NONE',  ( 0.0000000000000000000, 0.0000000000000000000, -1.000000000000000000 ) ) ;
#263 = CARTESIAN_POINT ( 'NONE',  ( -2.100000000000000100, 2.571673343026992500E-016, 153.5000000000000000 ) ) ;
#264 = FACE_OUTER_BOUND ( 'NONE', #71, .T. ) ;
#265 = CYLINDRICAL_SURFACE ( 'NONE', #266, 2.100000000000000100 ) ;
#266 = AXIS2_PLACEMENT_3D ( 'NONE', #267, #268, #269 ) ;
#267 = CARTESIAN_POINT ( 'NONE',  ( 0.0000000000000000000, 0.0000000000000000000, 128.5000000000000000 ) ) ;
#268 = DIRECTION ( 'NONE',  ( 0.0000000000000000000, 0.0000000000000000000, 1.000000000000000000 ) ) ;
#269 = DIRECTION ( 'NONE',  ( 1.000000000000000000, 0.0000000000000000000, 0.0000000000000000000 ) ) ;
#270 = FACE_OUTER_BOUND ( 'NONE', #111, .T. ) ;
#271 = CONICAL_SURFACE ( 'NONE', #272, 3.500000000000000400, 0.7853981633974473900 ) ;
#272 = AXIS2_PLACEMENT_3D ( 'NONE', #273, #274, #275 ) ;
#273 = CARTESIAN_POINT ( 'NONE',  ( 0.0000000000000000000, 0.0000000000000000000, 153.5000000000000000 ) ) ;
#274 = DIRECTION ( 'NONE',  ( 0.0000000000000000000, 0.0000000000000000000, -1.000000000000000000 ) ) ;
#275 = DIRECTION ( 'NONE',  ( -1.000000000000000000, 0.0000000000000000000, 0.0000000000000000000 ) ) ;
#276 = FACE_OUTER_BOUND ( 'NONE', #104, .T. ) ;
#277 = CONICAL_SURFACE ( 'NONE', #278, 3.500000000000000400, 0.7853981633974473900 ) ;
#278 = AXIS2_PLACEMENT_3D ( 'NONE', #279, #280, #281 ) ;
#279 = CARTESIAN_POINT ( 'NONE',  ( 0.0000000000000000000, 0.0000000000000000000, 153.5000000000000000 ) ) ;
#280 = DIRECTION ( 'NONE',  ( 0.0000000000000000000, 0.0000000000000000000, -1.000000000000000000 ) ) ;
#281 = DIRECTION ( 'NONE',  ( -1.000000000000000000, 0.0000000000000000000, 0.0000000000000000000 ) ) ;
#282 = LINE ( 'NONE', #283, #286 ) ;
#283 = CARTESIAN_POINT ( 'NONE',  ( 4.000000000000000000, 0.0000000000000000000, -153.0000000000000000 ) ) ;
#284 = ORIENTED_EDGE ( 'NONE', *, *, #131, .T. ) ;
#285 = EDGE_CURVE ( 'NONE', #179, #2, #259, .T. ) ;
#286 = VECTOR ( 'NONE', #287, 1000.000000000000000 ) ;
#287 = DIRECTION ( 'NONE',  ( 0.7071067811865374700, 0.0000000000000000000, 0.7071067811865576800 ) ) ;
#288 = CARTESIAN_POINT ( 'NONE',  ( -4.000000000000000000, 0.0000000000000000000, -153.0000000000000000 ) ) ;
#289 = FACE_OUTER_BOUND ( 'NONE', #162, .T. ) ;
#290 = PLANE ( 'NONE',  #291 ) ;
#291 = AXIS2_PLACEMENT_3D ( 'NONE', #292, #293, #294 ) ;
#292 = CARTESIAN_POINT ( 'NONE',  ( 0.0000000000000000000, 0.0000000000000000000, 128.5000000000000000 ) ) ;
#293 = DIRECTION ( 'NONE',  ( 0.0000000000000000000, 0.0000000000000000000, 1.000000000000000000 ) ) ;
#294 = DIRECTION ( 'NONE',  ( 1.000000000000000000, 0.0000000000000000000, 0.0000000000000000000 ) ) ;
#295 = CIRCLE ( 'NONE', #296, 2.100000000000000100 ) ;
#296 = AXIS2_PLACEMENT_3D ( 'NONE', #297, #298, #299 ) ;
#297 = CARTESIAN_POINT ( 'NONE',  ( 0.0000000000000000000, 0.0000000000000000000, 153.5000000000000000 ) ) ;
#298 = DIRECTION ( 'NONE',  ( 0.0000000000000000000, 0.0000000000000000000, 1.000000000000000000 ) ) ;
#299 = DIRECTION ( 'NONE',  ( 1.000000000000000000, 0.0000000000000000000, 0.0000000000000000000 ) ) ;
#300 = LINE ( 'NONE', #301, #304 ) ;
#301 = CARTESIAN_POINT ( 'NONE',  ( -4.000000000000000000, 4.898425415289509000E-016, -153.0000000000000000 ) ) ;
#302 = EDGE_LOOP ( 'NONE', ( #7, #49, #141, #182 ) ) ;
#303 = ORIENTED_EDGE ( 'NONE', *, *, #106, .F. ) ;
#304 = VECTOR ( 'NONE', #305, 1000.000000000000000 ) ;
#305 = DIRECTION ( 'NONE',  ( -0.7071067811865374700, 8.659274570719232200E-017, 0.7071067811865576800 ) ) ;
#306 = LINE ( 'NONE', #307, #308 ) ;
#307 = CARTESIAN_POINT ( 'NONE',  ( -4.000000000000000000, 0.0000000000000000000, 153.5000000000000000 ) ) ;
#308 = VECTOR ( 'NONE', #309, 1000.000000000000000 ) ;
#309 = DIRECTION ( 'NONE',  ( 0.0000000000000000000, 0.0000000000000000000, -1.000000000000000000 ) ) ;
#310 = CIRCLE ( 'NONE', #311, 2.100000000000000100 ) ;
#311 = AXIS2_PLACEMENT_3D ( 'NONE', #312, #313, #314 ) ;
#312 = CARTESIAN_POINT ( 'NONE',  ( 0.0000000000000000000, 0.0000000000000000000, -153.5000000000000000 ) ) ;
#313 = DIRECTION ( 'NONE',  ( 0.0000000000000000000, 0.0000000000000000000, 1.000000000000000000 ) ) ;
#314 = DIRECTION ( 'NONE',  ( 1.000000000000000000, 0.0000000000000000000, 0.0000000000000000000 ) ) ;
#315 = CIRCLE ( 'NONE', #316, 4.000000000000000000 ) ;
#316 = AXIS2_PLACEMENT_3D ( 'NONE', #317, #318, #319 ) ;
#317 = CARTESIAN_POINT ( 'NONE',  ( 0.0000000000000000000, 0.0000000000000000000, -153.0000000000000000 ) ) ;
#318 = DIRECTION ( 'NONE',  ( 0.0000000000000000000, 0.0000000000000000000, 1.000000000000000000 ) ) ;
#319 = DIRECTION ( 'NONE',  ( 1.000000000000000000, 0.0000000000000000000, 0.0000000000000000000 ) ) ;
#320 = CARTESIAN_POINT ( 'NONE',  ( 3.500000000000013800, 0.0000000000000000000, -153.5000000000000000 ) ) ;
#321 = CIRCLE ( 'NONE', #322, 3.500000000000000400 ) ;
#322 = AXIS2_PLACEMENT_3D ( 'NONE', #323, #324, #325 ) ;
#323 = CARTESIAN_POINT ( 'NONE',  ( 0.0000000000000000000, 0.0000000000000000000, 153.5000000000000000 ) ) ;
#324 = DIRECTION ( 'NONE',  ( 0.0000000000000000000, 0.0000000000000000000, 1.000000000000000000 ) ) ;
#325 = DIRECTION ( 'NONE',  ( 1.000000000000000000, 0.0000000000000000000, 0.0000000000000000000 ) ) ;
#326 = CARTESIAN_POINT ( 'NONE',  ( -2.100000000000000100, 2.571673343026992500E-016, 128.5000000000000000 ) ) ;
#327 = FACE_OUTER_BOUND ( 'NONE', #336, .T. ) ;
#328 = FACE_BOUND ( 'NONE', #117, .T. ) ;
#329 = PLANE ( 'NONE',  #330 ) ;
#330 = AXIS2_PLACEMENT_3D ( 'NONE', #331, #332, #333 ) ;
#331 = CARTESIAN_POINT ( 'NONE',  ( 0.0000000000000000000, 0.0000000000000000000, -153.5000000000000000 ) ) ;
#332 = DIRECTION ( 'NONE',  ( 0.0000000000000000000, 0.0000000000000000000, 1.000000000000000000 ) ) ;
#333 = DIRECTION ( 'NONE',  ( 1.000000000000000000, 0.0000000000000000000, 0.0000000000000000000 ) ) ;
#334 = CARTESIAN_POINT ( 'NONE',  ( -4.000000000000000000, 0.0000000000000000000, 153.0000000000000000 ) ) ;
#335 = CIRCLE ( 'NONE', #337, 2.100000000000000100 ) ;
#336 = EDGE_LOOP ( 'NONE', ( #70, #175 ) ) ;
#337 = AXIS2_PLACEMENT_3D ( 'NONE', #338, #339, #340 ) ;
#338 = CARTESIAN_POINT ( 'NONE',  ( 0.0000000000000000000, 0.0000000000000000000, -153.5000000000000000 ) ) ;
#339 = DIRECTION ( 'NONE',  ( 0.0000000000000000000, 0.0000000000000000000, 1.000000000000000000 ) ) ;
#340 = DIRECTION ( 'NONE',  ( 1.000000000000000000, 0.0000000000000000000, 0.0000000000000000000 ) ) ;
#341 = CARTESIAN_POINT ( 'NONE',  ( 2.100000000000000100, 2.571673343026992500E-016, -128.5000000000000000 ) ) ;
#342 = CARTESIAN_POINT ( 'NONE',  ( -3.500000000000013800, 4.592273826833923600E-016, -153.5000000000000000 ) ) ;
#343 = FACE_OUTER_BOUND ( 'NONE', #132, .T. ) ;
#344 = CYLINDRICAL_SURFACE ( 'NONE', #345, 2.100000000000000100 ) ;
#345 = AXIS2_PLACEMENT_3D ( 'NONE', #346, #347, #348 ) ;
#346 = CARTESIAN_POINT ( 'NONE',  ( 0.0000000000000000000, 0.0000000000000000000, -128.5000000000000000 ) ) ;
#347 = DIRECTION ( 'NONE',  ( 0.0000000000000000000, 0.0000000000000000000, -1.000000000000000000 ) ) ;
#348 = DIRECTION ( 'NONE',  ( -1.000000000000000000, 0.0000000000000000000, 0.0000000000000000000 ) ) ;
#349 = LINE ( 'NONE', #350, #351 ) ;
#350 = CARTESIAN_POINT ( 'NONE',  ( -3.500000000000000400, 0.0000000000000000000, 153.5000000000000000 ) ) ;
#351 = VECTOR ( 'NONE', #352, 999.9999999999998900 ) ;
#352 = DIRECTION ( 'NONE',  ( -0.7071067811865469100, 0.0000000000000000000, -0.7071067811865482400 ) ) ;
#353 = FACE_OUTER_BOUND ( 'NONE', #103, .T. ) ;
#354 = CYLINDRICAL_SURFACE ( 'NONE', #355, 2.100000000000000100 ) ;
#355 = AXIS2_PLACEMENT_3D ( 'NONE', #356, #357, #358 ) ;
#356 = CARTESIAN_POINT ( 'NONE',  ( 0.0000000000000000000, 0.0000000000000000000, -128.5000000000000000 ) ) ;
#357 = DIRECTION ( 'NONE',  ( 0.0000000000000000000, 0.0000000000000000000, -1.000000000000000000 ) ) ;
#358 = DIRECTION ( 'NONE',  ( -1.000000000000000000, 0.0000000000000000000, 0.0000000000000000000 ) ) ;
#359 = CIRCLE ( 'NONE', #360, 2.100000000000000100 ) ;
#360 = AXIS2_PLACEMENT_3D ( 'NONE', #361, #362, #363 ) ;
#361 = CARTESIAN_POINT ( 'NONE',  ( 0.0000000000000000000, 0.0000000000000000000, 153.5000000000000000 ) ) ;
#362 = DIRECTION ( 'NONE',  ( 0.0000000000000000000, 0.0000000000000000000, 1.000000000000000000 ) ) ;
#363 = DIRECTION ( 'NONE',  ( 1.000000000000000000, 0.0000000000000000000, 0.0000000000000000000 ) ) ;
#364 = FACE_OUTER_BOUND ( 'NONE', #100, .T. ) ;
#365 = CYLINDRICAL_SURFACE ( 'NONE', #366, 4.000000000000000000 ) ;
#366 = AXIS2_PLACEMENT_3D ( 'NONE', #367, #368, #370 ) ;
#367 = CARTESIAN_POINT ( 'NONE',  ( 0.0000000000000000000, 0.0000000000000000000, 153.5000000000000000 ) ) ;
#368 = DIRECTION ( 'NONE',  ( 0.0000000000000000000, 0.0000000000000000000, -1.000000000000000000 ) ) ;
#369 = EDGE_LOOP ( 'NONE', ( #3, #110, #109, #184 ) ) ;
#370 = DIRECTION ( 'NONE',  ( -1.000000000000000000, 0.0000000000000000000, 0.0000000000000000000 ) ) ;
#371 = FACE_OUTER_BOUND ( 'NONE', #302, .T. ) ;
#372 = CONICAL_SURFACE ( 'NONE', #373, 4.000000000000000000, 0.7853981633974340700 ) ;
#373 = AXIS2_PLACEMENT_3D ( 'NONE', #374, #375, #376 ) ;
#374 = CARTESIAN_POINT ( 'NONE',  ( 0.0000000000000000000, 0.0000000000000000000, -153.0000000000000000 ) ) ;
#375 = DIRECTION ( 'NONE',  ( 0.0000000000000000000, 0.0000000000000000000, 1.000000000000000000 ) ) ;
#376 = DIRECTION ( 'NONE',  ( 1.000000000000000000, 0.0000000000000000000, 0.0000000000000000000 ) ) ;
#377 = CIRCLE ( 'NONE', #378, 4.000000000000000000 ) ;
#378 = AXIS2_PLACEMENT_3D ( 'NONE', #379, #380, #381 ) ;
#379 = CARTESIAN_POINT ( 'NONE',  ( 0.0000000000000000000, 0.0000000000000000000, 153.0000000000000000 ) ) ;
#380 = DIRECTION ( 'NONE',  ( 0.0000000000000000000, 0.0000000000000000000, -1.000000000000000000 ) ) ;
#381 = DIRECTION ( 'NONE',  ( 1.000000000000000000, 0.0000000000000000000, 0.0000000000000000000 ) ) ;
#382 = CIRCLE ( 'NONE', #383, 2.100000000000000100 ) ;
#383 = AXIS2_PLACEMENT_3D ( 'NONE', #384, #385, #15 ) ;
#384 = CARTESIAN_POINT ( 'NONE',  ( 0.0000000000000000000, 0.0000000000000000000, 128.5000000000000000 ) ) ;
#385 = DIRECTION ( 'NONE',  ( 0.0000000000000000000, 0.0000000000000000000, 1.000000000000000000 ) ) ;
ENDSEC;
END-ISO-10303-21;
