ISO-10303-21;
HEADER;
/* Generated by software containing ST-Developer
 * from STEP Tools, Inc. (www.steptools.com) 
 */

FILE_DESCRIPTION(
/* description */ (''),
/* implementation_level */ '2;1');

FILE_NAME(
/* name */ 'ARB 01.stp',
/* time_stamp */ '2024-07-09T11:55:19+02:00',
/* author */ ('Mathieu.Ertoran'),
/* organization */ (''),
/* preprocessor_version */ 'ST-DEVELOPER v20',
/* originating_system */ 'Autodesk Inventor 2024',
/* authorisation */ '');

FILE_SCHEMA (('AUTOMOTIVE_DESIGN { 1 0 10303 214 3 1 1 }'));
ENDSEC;

DATA;
#10=MECHANICAL_DESIGN_GEOMETRIC_PRESENTATION_REPRESENTATION('',(#13),#544);
#11=SHAPE_REPRESENTATION_RELATIONSHIP('SRR','None',#551,#12);
#12=ADVANCED_BREP_SHAPE_REPRESENTATION('',(#14),#543);
#13=STYLED_ITEM('',(#560),#14);
#14=MANIFOLD_SOLID_BREP('Solide1',#303);
#15=FACE_BOUND('',#43,.T.);
#16=FACE_BOUND('',#57,.T.);
#17=PLANE('',#329);
#18=PLANE('',#330);
#19=PLANE('',#341);
#20=PLANE('',#344);
#21=PLANE('',#349);
#22=PLANE('',#352);
#23=PLANE('',#359);
#24=FACE_OUTER_BOUND('',#40,.T.);
#25=FACE_OUTER_BOUND('',#41,.T.);
#26=FACE_OUTER_BOUND('',#42,.T.);
#27=FACE_OUTER_BOUND('',#44,.T.);
#28=FACE_OUTER_BOUND('',#45,.T.);
#29=FACE_OUTER_BOUND('',#46,.T.);
#30=FACE_OUTER_BOUND('',#47,.T.);
#31=FACE_OUTER_BOUND('',#48,.T.);
#32=FACE_OUTER_BOUND('',#49,.T.);
#33=FACE_OUTER_BOUND('',#50,.T.);
#34=FACE_OUTER_BOUND('',#51,.T.);
#35=FACE_OUTER_BOUND('',#52,.T.);
#36=FACE_OUTER_BOUND('',#53,.T.);
#37=FACE_OUTER_BOUND('',#54,.T.);
#38=FACE_OUTER_BOUND('',#55,.T.);
#39=FACE_OUTER_BOUND('',#56,.T.);
#40=EDGE_LOOP('',(#194,#195,#196,#197));
#41=EDGE_LOOP('',(#198,#199,#200,#201));
#42=EDGE_LOOP('',(#202,#203,#204,#205,#206,#207,#208,#209,#210,#211,#212,
#213,#214));
#43=EDGE_LOOP('',(#215));
#44=EDGE_LOOP('',(#216,#217,#218,#219));
#45=EDGE_LOOP('',(#220,#221,#222,#223));
#46=EDGE_LOOP('',(#224,#225,#226,#227));
#47=EDGE_LOOP('',(#228,#229,#230,#231));
#48=EDGE_LOOP('',(#232,#233,#234,#235));
#49=EDGE_LOOP('',(#236,#237,#238,#239));
#50=EDGE_LOOP('',(#240,#241,#242,#243));
#51=EDGE_LOOP('',(#244,#245,#246,#247));
#52=EDGE_LOOP('',(#248,#249,#250,#251));
#53=EDGE_LOOP('',(#252,#253,#254,#255));
#54=EDGE_LOOP('',(#256,#257,#258,#259));
#55=EDGE_LOOP('',(#260,#261,#262,#263));
#56=EDGE_LOOP('',(#264,#265,#266,#267,#268,#269,#270,#271,#272,#273,#274,
#275,#276));
#57=EDGE_LOOP('',(#277));
#58=LINE('',#460,#82);
#59=LINE('',#463,#83);
#60=LINE('',#466,#84);
#61=LINE('',#468,#85);
#62=LINE('',#469,#86);
#63=LINE('',#474,#87);
#64=LINE('',#482,#88);
#65=LINE('',#486,#89);
#66=LINE('',#490,#90);
#67=LINE('',#498,#91);
#68=LINE('',#499,#92);
#69=LINE('',#502,#93);
#70=LINE('',#503,#94);
#71=LINE('',#506,#95);
#72=LINE('',#509,#96);
#73=LINE('',#512,#97);
#74=LINE('',#513,#98);
#75=LINE('',#517,#99);
#76=LINE('',#521,#100);
#77=LINE('',#524,#101);
#78=LINE('',#525,#102);
#79=LINE('',#529,#103);
#80=LINE('',#532,#104);
#81=LINE('',#533,#105);
#82=VECTOR('',#366,10.);
#83=VECTOR('',#369,10.);
#84=VECTOR('',#372,10.);
#85=VECTOR('',#373,10.);
#86=VECTOR('',#374,10.);
#87=VECTOR('',#379,10.);
#88=VECTOR('',#386,10.);
#89=VECTOR('',#389,10.);
#90=VECTOR('',#392,10.);
#91=VECTOR('',#401,10.);
#92=VECTOR('',#402,10.);
#93=VECTOR('',#405,10.);
#94=VECTOR('',#406,10.);
#95=VECTOR('',#409,10.);
#96=VECTOR('',#412,10.);
#97=VECTOR('',#415,10.);
#98=VECTOR('',#416,10.);
#99=VECTOR('',#421,2.5);
#100=VECTOR('',#426,10.);
#101=VECTOR('',#429,10.);
#102=VECTOR('',#430,10.);
#103=VECTOR('',#435,10.);
#104=VECTOR('',#438,10.);
#105=VECTOR('',#439,10.);
#106=CIRCLE('',#327,1.);
#107=CIRCLE('',#328,1.);
#108=CIRCLE('',#331,11.5);
#109=CIRCLE('',#332,0.5);
#110=CIRCLE('',#333,10.);
#111=CIRCLE('',#334,0.5);
#112=CIRCLE('',#335,2.);
#113=CIRCLE('',#336,10.);
#114=CIRCLE('',#337,1.);
#115=CIRCLE('',#338,2.5);
#116=CIRCLE('',#340,0.5);
#117=CIRCLE('',#343,0.5);
#118=CIRCLE('',#346,2.5);
#119=CIRCLE('',#348,2.);
#120=CIRCLE('',#351,10.);
#121=CIRCLE('',#354,1.);
#122=CIRCLE('',#356,11.5);
#123=CIRCLE('',#358,10.);
#124=VERTEX_POINT('',#456);
#125=VERTEX_POINT('',#457);
#126=VERTEX_POINT('',#459);
#127=VERTEX_POINT('',#461);
#128=VERTEX_POINT('',#465);
#129=VERTEX_POINT('',#467);
#130=VERTEX_POINT('',#471);
#131=VERTEX_POINT('',#473);
#132=VERTEX_POINT('',#475);
#133=VERTEX_POINT('',#477);
#134=VERTEX_POINT('',#479);
#135=VERTEX_POINT('',#481);
#136=VERTEX_POINT('',#483);
#137=VERTEX_POINT('',#485);
#138=VERTEX_POINT('',#487);
#139=VERTEX_POINT('',#489);
#140=VERTEX_POINT('',#492);
#141=VERTEX_POINT('',#495);
#142=VERTEX_POINT('',#496);
#143=VERTEX_POINT('',#501);
#144=VERTEX_POINT('',#505);
#145=VERTEX_POINT('',#507);
#146=VERTEX_POINT('',#511);
#147=VERTEX_POINT('',#515);
#148=VERTEX_POINT('',#519);
#149=VERTEX_POINT('',#523);
#150=VERTEX_POINT('',#527);
#151=VERTEX_POINT('',#531);
#152=EDGE_CURVE('',#124,#125,#106,.T.);
#153=EDGE_CURVE('',#125,#126,#58,.T.);
#154=EDGE_CURVE('',#126,#127,#107,.T.);
#155=EDGE_CURVE('',#127,#124,#59,.T.);
#156=EDGE_CURVE('',#127,#128,#60,.T.);
#157=EDGE_CURVE('',#128,#129,#61,.T.);
#158=EDGE_CURVE('',#124,#129,#62,.T.);
#159=EDGE_CURVE('',#130,#126,#108,.T.);
#160=EDGE_CURVE('',#131,#130,#63,.T.);
#161=EDGE_CURVE('',#132,#131,#109,.T.);
#162=EDGE_CURVE('',#133,#132,#110,.T.);
#163=EDGE_CURVE('',#134,#133,#111,.T.);
#164=EDGE_CURVE('',#135,#134,#64,.T.);
#165=EDGE_CURVE('',#136,#135,#112,.T.);
#166=EDGE_CURVE('',#137,#136,#65,.T.);
#167=EDGE_CURVE('',#138,#137,#113,.T.);
#168=EDGE_CURVE('',#139,#138,#66,.T.);
#169=EDGE_CURVE('',#128,#139,#114,.T.);
#170=EDGE_CURVE('',#140,#140,#115,.T.);
#171=EDGE_CURVE('',#141,#142,#116,.T.);
#172=EDGE_CURVE('',#142,#134,#67,.T.);
#173=EDGE_CURVE('',#133,#141,#68,.T.);
#174=EDGE_CURVE('',#143,#142,#69,.T.);
#175=EDGE_CURVE('',#135,#143,#70,.T.);
#176=EDGE_CURVE('',#131,#144,#71,.T.);
#177=EDGE_CURVE('',#144,#145,#117,.T.);
#178=EDGE_CURVE('',#145,#132,#72,.T.);
#179=EDGE_CURVE('',#130,#146,#73,.T.);
#180=EDGE_CURVE('',#144,#146,#74,.T.);
#181=EDGE_CURVE('',#147,#147,#118,.T.);
#182=EDGE_CURVE('',#147,#140,#75,.T.);
#183=EDGE_CURVE('',#148,#143,#119,.T.);
#184=EDGE_CURVE('',#136,#148,#76,.T.);
#185=EDGE_CURVE('',#149,#148,#77,.T.);
#186=EDGE_CURVE('',#137,#149,#78,.T.);
#187=EDGE_CURVE('',#150,#149,#120,.T.);
#188=EDGE_CURVE('',#138,#150,#79,.T.);
#189=EDGE_CURVE('',#151,#150,#80,.T.);
#190=EDGE_CURVE('',#139,#151,#81,.T.);
#191=EDGE_CURVE('',#129,#151,#121,.T.);
#192=EDGE_CURVE('',#146,#125,#122,.T.);
#193=EDGE_CURVE('',#141,#145,#123,.T.);
#194=ORIENTED_EDGE('',*,*,#152,.T.);
#195=ORIENTED_EDGE('',*,*,#153,.T.);
#196=ORIENTED_EDGE('',*,*,#154,.T.);
#197=ORIENTED_EDGE('',*,*,#155,.T.);
#198=ORIENTED_EDGE('',*,*,#155,.F.);
#199=ORIENTED_EDGE('',*,*,#156,.T.);
#200=ORIENTED_EDGE('',*,*,#157,.T.);
#201=ORIENTED_EDGE('',*,*,#158,.F.);
#202=ORIENTED_EDGE('',*,*,#154,.F.);
#203=ORIENTED_EDGE('',*,*,#159,.F.);
#204=ORIENTED_EDGE('',*,*,#160,.F.);
#205=ORIENTED_EDGE('',*,*,#161,.F.);
#206=ORIENTED_EDGE('',*,*,#162,.F.);
#207=ORIENTED_EDGE('',*,*,#163,.F.);
#208=ORIENTED_EDGE('',*,*,#164,.F.);
#209=ORIENTED_EDGE('',*,*,#165,.F.);
#210=ORIENTED_EDGE('',*,*,#166,.F.);
#211=ORIENTED_EDGE('',*,*,#167,.F.);
#212=ORIENTED_EDGE('',*,*,#168,.F.);
#213=ORIENTED_EDGE('',*,*,#169,.F.);
#214=ORIENTED_EDGE('',*,*,#156,.F.);
#215=ORIENTED_EDGE('',*,*,#170,.F.);
#216=ORIENTED_EDGE('',*,*,#171,.T.);
#217=ORIENTED_EDGE('',*,*,#172,.T.);
#218=ORIENTED_EDGE('',*,*,#163,.T.);
#219=ORIENTED_EDGE('',*,*,#173,.T.);
#220=ORIENTED_EDGE('',*,*,#172,.F.);
#221=ORIENTED_EDGE('',*,*,#174,.F.);
#222=ORIENTED_EDGE('',*,*,#175,.F.);
#223=ORIENTED_EDGE('',*,*,#164,.T.);
#224=ORIENTED_EDGE('',*,*,#161,.T.);
#225=ORIENTED_EDGE('',*,*,#176,.T.);
#226=ORIENTED_EDGE('',*,*,#177,.T.);
#227=ORIENTED_EDGE('',*,*,#178,.T.);
#228=ORIENTED_EDGE('',*,*,#176,.F.);
#229=ORIENTED_EDGE('',*,*,#160,.T.);
#230=ORIENTED_EDGE('',*,*,#179,.T.);
#231=ORIENTED_EDGE('',*,*,#180,.F.);
#232=ORIENTED_EDGE('',*,*,#181,.F.);
#233=ORIENTED_EDGE('',*,*,#182,.T.);
#234=ORIENTED_EDGE('',*,*,#170,.T.);
#235=ORIENTED_EDGE('',*,*,#182,.F.);
#236=ORIENTED_EDGE('',*,*,#165,.T.);
#237=ORIENTED_EDGE('',*,*,#175,.T.);
#238=ORIENTED_EDGE('',*,*,#183,.F.);
#239=ORIENTED_EDGE('',*,*,#184,.F.);
#240=ORIENTED_EDGE('',*,*,#166,.T.);
#241=ORIENTED_EDGE('',*,*,#184,.T.);
#242=ORIENTED_EDGE('',*,*,#185,.F.);
#243=ORIENTED_EDGE('',*,*,#186,.F.);
#244=ORIENTED_EDGE('',*,*,#167,.T.);
#245=ORIENTED_EDGE('',*,*,#186,.T.);
#246=ORIENTED_EDGE('',*,*,#187,.F.);
#247=ORIENTED_EDGE('',*,*,#188,.F.);
#248=ORIENTED_EDGE('',*,*,#168,.T.);
#249=ORIENTED_EDGE('',*,*,#188,.T.);
#250=ORIENTED_EDGE('',*,*,#189,.F.);
#251=ORIENTED_EDGE('',*,*,#190,.F.);
#252=ORIENTED_EDGE('',*,*,#169,.T.);
#253=ORIENTED_EDGE('',*,*,#190,.T.);
#254=ORIENTED_EDGE('',*,*,#191,.F.);
#255=ORIENTED_EDGE('',*,*,#157,.F.);
#256=ORIENTED_EDGE('',*,*,#153,.F.);
#257=ORIENTED_EDGE('',*,*,#192,.F.);
#258=ORIENTED_EDGE('',*,*,#179,.F.);
#259=ORIENTED_EDGE('',*,*,#159,.T.);
#260=ORIENTED_EDGE('',*,*,#173,.F.);
#261=ORIENTED_EDGE('',*,*,#162,.T.);
#262=ORIENTED_EDGE('',*,*,#178,.F.);
#263=ORIENTED_EDGE('',*,*,#193,.F.);
#264=ORIENTED_EDGE('',*,*,#152,.F.);
#265=ORIENTED_EDGE('',*,*,#158,.T.);
#266=ORIENTED_EDGE('',*,*,#191,.T.);
#267=ORIENTED_EDGE('',*,*,#189,.T.);
#268=ORIENTED_EDGE('',*,*,#187,.T.);
#269=ORIENTED_EDGE('',*,*,#185,.T.);
#270=ORIENTED_EDGE('',*,*,#183,.T.);
#271=ORIENTED_EDGE('',*,*,#174,.T.);
#272=ORIENTED_EDGE('',*,*,#171,.F.);
#273=ORIENTED_EDGE('',*,*,#193,.T.);
#274=ORIENTED_EDGE('',*,*,#177,.F.);
#275=ORIENTED_EDGE('',*,*,#180,.T.);
#276=ORIENTED_EDGE('',*,*,#192,.T.);
#277=ORIENTED_EDGE('',*,*,#181,.T.);
#278=CYLINDRICAL_SURFACE('',#326,1.);
#279=CYLINDRICAL_SURFACE('',#339,0.5);
#280=CYLINDRICAL_SURFACE('',#342,0.5);
#281=CYLINDRICAL_SURFACE('',#345,2.5);
#282=CYLINDRICAL_SURFACE('',#347,2.);
#283=CYLINDRICAL_SURFACE('',#350,10.);
#284=CYLINDRICAL_SURFACE('',#353,1.);
#285=CYLINDRICAL_SURFACE('',#355,11.5);
#286=CYLINDRICAL_SURFACE('',#357,10.);
#287=ADVANCED_FACE('',(#24),#278,.T.);
#288=ADVANCED_FACE('',(#25),#17,.T.);
#289=ADVANCED_FACE('',(#26,#15),#18,.F.);
#290=ADVANCED_FACE('',(#27),#279,.T.);
#291=ADVANCED_FACE('',(#28),#19,.T.);
#292=ADVANCED_FACE('',(#29),#280,.F.);
#293=ADVANCED_FACE('',(#30),#20,.T.);
#294=ADVANCED_FACE('',(#31),#281,.F.);
#295=ADVANCED_FACE('',(#32),#282,.F.);
#296=ADVANCED_FACE('',(#33),#21,.T.);
#297=ADVANCED_FACE('',(#34),#283,.T.);
#298=ADVANCED_FACE('',(#35),#22,.T.);
#299=ADVANCED_FACE('',(#36),#284,.F.);
#300=ADVANCED_FACE('',(#37),#285,.T.);
#301=ADVANCED_FACE('',(#38),#286,.T.);
#302=ADVANCED_FACE('',(#39,#16),#23,.T.);
#303=CLOSED_SHELL('',(#287,#288,#289,#290,#291,#292,#293,#294,#295,#296,
#297,#298,#299,#300,#301,#302));
#304=DERIVED_UNIT_ELEMENT(#307,1.);
#305=DERIVED_UNIT_ELEMENT(#546,-3.);
#306=DIMENSIONAL_EXPONENTS(0.,1.,0.,0.,0.,0.,0.);
#307=(
CONVERSION_BASED_UNIT('gram',#309)
MASS_UNIT()
NAMED_UNIT(#306)
);
#308=(
MASS_UNIT()
NAMED_UNIT(*)
SI_UNIT(.KILO.,.GRAM.)
);
#309=MASS_MEASURE_WITH_UNIT(MASS_MEASURE(0.001),#308);
#310=DERIVED_UNIT((#304,#305));
#311=MEASURE_REPRESENTATION_ITEM('density measure',
POSITIVE_RATIO_MEASURE(8.),#310);
#312=PROPERTY_DEFINITION_REPRESENTATION(#317,#314);
#313=PROPERTY_DEFINITION_REPRESENTATION(#318,#315);
#314=REPRESENTATION('material name',(#316),#543);
#315=REPRESENTATION('density',(#311),#543);
#316=DESCRIPTIVE_REPRESENTATION_ITEM('Acier inoxydable',
'Acier inoxydable');
#317=PROPERTY_DEFINITION('material property','material name',#553);
#318=PROPERTY_DEFINITION('material property','density of part',#553);
#319=DATE_TIME_ROLE('creation_date');
#320=APPLIED_DATE_AND_TIME_ASSIGNMENT(#321,#319,(#553));
#321=DATE_AND_TIME(#322,#323);
#322=CALENDAR_DATE(2024,8,7);
#323=LOCAL_TIME(0,0,0.,#324);
#324=COORDINATED_UNIVERSAL_TIME_OFFSET(0,0,.BEHIND.);
#325=AXIS2_PLACEMENT_3D('',#454,#360,#361);
#326=AXIS2_PLACEMENT_3D('',#455,#362,#363);
#327=AXIS2_PLACEMENT_3D('',#458,#364,#365);
#328=AXIS2_PLACEMENT_3D('',#462,#367,#368);
#329=AXIS2_PLACEMENT_3D('',#464,#370,#371);
#330=AXIS2_PLACEMENT_3D('',#470,#375,#376);
#331=AXIS2_PLACEMENT_3D('',#472,#377,#378);
#332=AXIS2_PLACEMENT_3D('',#476,#380,#381);
#333=AXIS2_PLACEMENT_3D('',#478,#382,#383);
#334=AXIS2_PLACEMENT_3D('',#480,#384,#385);
#335=AXIS2_PLACEMENT_3D('',#484,#387,#388);
#336=AXIS2_PLACEMENT_3D('',#488,#390,#391);
#337=AXIS2_PLACEMENT_3D('',#491,#393,#394);
#338=AXIS2_PLACEMENT_3D('',#493,#395,#396);
#339=AXIS2_PLACEMENT_3D('',#494,#397,#398);
#340=AXIS2_PLACEMENT_3D('',#497,#399,#400);
#341=AXIS2_PLACEMENT_3D('',#500,#403,#404);
#342=AXIS2_PLACEMENT_3D('',#504,#407,#408);
#343=AXIS2_PLACEMENT_3D('',#508,#410,#411);
#344=AXIS2_PLACEMENT_3D('',#510,#413,#414);
#345=AXIS2_PLACEMENT_3D('',#514,#417,#418);
#346=AXIS2_PLACEMENT_3D('',#516,#419,#420);
#347=AXIS2_PLACEMENT_3D('',#518,#422,#423);
#348=AXIS2_PLACEMENT_3D('',#520,#424,#425);
#349=AXIS2_PLACEMENT_3D('',#522,#427,#428);
#350=AXIS2_PLACEMENT_3D('',#526,#431,#432);
#351=AXIS2_PLACEMENT_3D('',#528,#433,#434);
#352=AXIS2_PLACEMENT_3D('',#530,#436,#437);
#353=AXIS2_PLACEMENT_3D('',#534,#440,#441);
#354=AXIS2_PLACEMENT_3D('',#535,#442,#443);
#355=AXIS2_PLACEMENT_3D('',#536,#444,#445);
#356=AXIS2_PLACEMENT_3D('',#537,#446,#447);
#357=AXIS2_PLACEMENT_3D('',#538,#448,#449);
#358=AXIS2_PLACEMENT_3D('',#539,#450,#451);
#359=AXIS2_PLACEMENT_3D('',#540,#452,#453);
#360=DIRECTION('axis',(0.,0.,1.));
#361=DIRECTION('refdir',(1.,0.,0.));
#362=DIRECTION('center_axis',(0.,0.,1.));
#363=DIRECTION('ref_axis',(0.672592709134551,-0.740012869900954,0.));
#364=DIRECTION('center_axis',(0.,0.,-1.));
#365=DIRECTION('ref_axis',(0.672592709134551,-0.740012869900954,0.));
#366=DIRECTION('',(0.,0.,-1.));
#367=DIRECTION('center_axis',(0.,0.,1.));
#368=DIRECTION('ref_axis',(0.672592709134551,-0.740012869900954,0.));
#369=DIRECTION('',(0.,0.,1.));
#370=DIRECTION('center_axis',(1.,3.28692043842088E-31,0.));
#371=DIRECTION('ref_axis',(-3.28692043842088E-31,1.,0.));
#372=DIRECTION('',(-3.28692043842088E-31,1.,0.));
#373=DIRECTION('',(0.,0.,1.));
#374=DIRECTION('',(-3.28692043842088E-31,1.,0.));
#375=DIRECTION('center_axis',(0.,0.,1.));
#376=DIRECTION('ref_axis',(1.,0.,0.));
#377=DIRECTION('center_axis',(0.,0.,1.));
#378=DIRECTION('ref_axis',(1.,0.,0.));
#379=DIRECTION('',(-1.,0.,0.));
#380=DIRECTION('center_axis',(0.,0.,-1.));
#381=DIRECTION('ref_axis',(0.690065559342357,-0.723746864455743,0.));
#382=DIRECTION('center_axis',(0.,0.,1.));
#383=DIRECTION('ref_axis',(1.,0.,0.));
#384=DIRECTION('center_axis',(0.,0.,1.));
#385=DIRECTION('ref_axis',(0.688247201611686,0.725476250110011,0.));
#386=DIRECTION('',(-6.93889390390723E-17,1.,0.));
#387=DIRECTION('center_axis',(0.,0.,-1.));
#388=DIRECTION('ref_axis',(1.,0.,0.));
#389=DIRECTION('',(-1.,-7.74738009156595E-17,0.));
#390=DIRECTION('center_axis',(0.,0.,1.));
#391=DIRECTION('ref_axis',(1.,0.,0.));
#392=DIRECTION('',(1.,1.97746387884571E-16,0.));
#393=DIRECTION('center_axis',(0.,0.,-1.));
#394=DIRECTION('ref_axis',(1.38777878078144E-16,-1.,0.));
#395=DIRECTION('center_axis',(0.,0.,-1.));
#396=DIRECTION('ref_axis',(-1.,0.,0.));
#397=DIRECTION('center_axis',(0.,0.,1.));
#398=DIRECTION('ref_axis',(0.688247201611686,0.725476250110011,0.));
#399=DIRECTION('center_axis',(0.,0.,-1.));
#400=DIRECTION('ref_axis',(0.688247201611686,0.725476250110011,0.));
#401=DIRECTION('',(0.,0.,-1.));
#402=DIRECTION('',(0.,0.,1.));
#403=DIRECTION('center_axis',(1.,6.93889390390723E-17,0.));
#404=DIRECTION('ref_axis',(-6.93889390390723E-17,1.,0.));
#405=DIRECTION('',(-6.93889390390723E-17,1.,0.));
#406=DIRECTION('',(0.,0.,1.));
#407=DIRECTION('center_axis',(0.,0.,1.));
#408=DIRECTION('ref_axis',(0.690065559342357,-0.723746864455743,0.));
#409=DIRECTION('',(0.,0.,1.));
#410=DIRECTION('center_axis',(0.,0.,1.));
#411=DIRECTION('ref_axis',(0.690065559342357,-0.723746864455743,0.));
#412=DIRECTION('',(0.,0.,-1.));
#413=DIRECTION('center_axis',(0.,1.,0.));
#414=DIRECTION('ref_axis',(-1.,0.,0.));
#415=DIRECTION('',(0.,0.,1.));
#416=DIRECTION('',(-1.,0.,0.));
#417=DIRECTION('center_axis',(0.,0.,1.));
#418=DIRECTION('ref_axis',(-1.,0.,0.));
#419=DIRECTION('center_axis',(0.,0.,-1.));
#420=DIRECTION('ref_axis',(-1.,0.,0.));
#421=DIRECTION('',(0.,0.,-1.));
#422=DIRECTION('center_axis',(0.,0.,1.));
#423=DIRECTION('ref_axis',(1.,0.,0.));
#424=DIRECTION('center_axis',(0.,0.,-1.));
#425=DIRECTION('ref_axis',(1.,0.,0.));
#426=DIRECTION('',(0.,0.,1.));
#427=DIRECTION('center_axis',(-7.74738009156595E-17,1.,0.));
#428=DIRECTION('ref_axis',(-1.,-7.74738009156595E-17,0.));
#429=DIRECTION('',(-1.,-7.74738009156595E-17,0.));
#430=DIRECTION('',(0.,0.,1.));
#431=DIRECTION('center_axis',(0.,0.,1.));
#432=DIRECTION('ref_axis',(1.,0.,0.));
#433=DIRECTION('center_axis',(0.,0.,1.));
#434=DIRECTION('ref_axis',(1.,0.,0.));
#435=DIRECTION('',(0.,0.,1.));
#436=DIRECTION('center_axis',(1.97746387884571E-16,-1.,0.));
#437=DIRECTION('ref_axis',(1.,1.97746387884571E-16,0.));
#438=DIRECTION('',(1.,1.97746387884571E-16,0.));
#439=DIRECTION('',(0.,0.,1.));
#440=DIRECTION('center_axis',(0.,0.,1.));
#441=DIRECTION('ref_axis',(1.38777878078144E-16,-1.,0.));
#442=DIRECTION('center_axis',(0.,0.,-1.));
#443=DIRECTION('ref_axis',(1.38777878078144E-16,-1.,0.));
#444=DIRECTION('center_axis',(0.,0.,1.));
#445=DIRECTION('ref_axis',(1.,0.,0.));
#446=DIRECTION('center_axis',(0.,0.,1.));
#447=DIRECTION('ref_axis',(1.,0.,0.));
#448=DIRECTION('center_axis',(0.,0.,1.));
#449=DIRECTION('ref_axis',(1.,0.,0.));
#450=DIRECTION('center_axis',(0.,0.,1.));
#451=DIRECTION('ref_axis',(1.,0.,0.));
#452=DIRECTION('center_axis',(0.,0.,1.));
#453=DIRECTION('ref_axis',(1.,0.,0.));
#454=CARTESIAN_POINT('',(0.,0.,0.));
#455=CARTESIAN_POINT('Origin',(-1.,-10.4522724801834,0.));
#456=CARTESIAN_POINT('',(1.48658365885024E-31,-10.4522724801834,14.75));
#457=CARTESIAN_POINT('',(-1.09523809523809,-11.4477270021057,14.75));
#458=CARTESIAN_POINT('Origin',(-1.,-10.4522724801834,14.75));
#459=CARTESIAN_POINT('',(-1.09523809523809,-11.4477270021057,0.));
#460=CARTESIAN_POINT('',(-1.09523809523809,-11.4477270021057,0.));
#461=CARTESIAN_POINT('',(1.48658365885024E-31,-10.4522724801834,0.));
#462=CARTESIAN_POINT('Origin',(-1.,-10.4522724801834,0.));
#463=CARTESIAN_POINT('',(0.,-10.4522724801834,0.));
#464=CARTESIAN_POINT('Origin',(4.93038065763132E-31,-11.5,0.));
#465=CARTESIAN_POINT('',(-4.93038065763132E-31,-8.5,0.));
#466=CARTESIAN_POINT('',(0.,-10.,0.));
#467=CARTESIAN_POINT('',(-4.93038065763132E-31,-8.5,14.75));
#468=CARTESIAN_POINT('',(-4.93038065763132E-31,-8.5,0.));
#469=CARTESIAN_POINT('',(0.,-10.,14.75));
#470=CARTESIAN_POINT('Origin',(0.,0.,0.));
#471=CARTESIAN_POINT('',(-11.5,0.,0.));
#472=CARTESIAN_POINT('Origin',(0.,0.,0.));
#473=CARTESIAN_POINT('',(-10.4880884817015,0.,0.));
#474=CARTESIAN_POINT('',(-10.,0.,0.));
#475=CARTESIAN_POINT('',(-9.98865569685859,0.476190476190475,0.));
#476=CARTESIAN_POINT('Origin',(-10.4880884817015,0.499999999999999,0.));
#477=CARTESIAN_POINT('',(-0.526315789473684,9.98613997947909,0.));
#478=CARTESIAN_POINT('Origin',(0.,0.,0.));
#479=CARTESIAN_POINT('',(3.56081150325914E-17,9.48683298050514,0.));
#480=CARTESIAN_POINT('Origin',(-0.5,9.48683298050514,0.));
#481=CARTESIAN_POINT('',(2.77555756156289E-16,6.,0.));
#482=CARTESIAN_POINT('',(2.77555756156289E-16,6.,0.));
#483=CARTESIAN_POINT('',(2.,4.,0.));
#484=CARTESIAN_POINT('Origin',(2.,6.,0.));
#485=CARTESIAN_POINT('',(9.16515138991168,4.,0.));
#486=CARTESIAN_POINT('',(9.16515138991168,4.,0.));
#487=CARTESIAN_POINT('',(6.61437827766148,-7.5,0.));
#488=CARTESIAN_POINT('Origin',(0.,0.,0.));
#489=CARTESIAN_POINT('',(1.,-7.5,0.));
#490=CARTESIAN_POINT('',(1.,-7.5,0.));
#491=CARTESIAN_POINT('Origin',(1.,-8.5,0.));
#492=CARTESIAN_POINT('',(2.5,3.06161699786838E-16,0.));
#493=CARTESIAN_POINT('Origin',(0.,0.,0.));
#494=CARTESIAN_POINT('Origin',(-0.5,9.48683298050514,0.));
#495=CARTESIAN_POINT('',(-0.526315789473684,9.98613997947909,14.75));
#496=CARTESIAN_POINT('',(3.56081150325914E-17,9.48683298050514,14.75));
#497=CARTESIAN_POINT('Origin',(-0.5,9.48683298050514,14.75));
#498=CARTESIAN_POINT('',(6.93889390390723E-17,9.48683298050514,0.));
#499=CARTESIAN_POINT('',(-0.526315789473684,9.98613997947909,0.));
#500=CARTESIAN_POINT('Origin',(2.77555756156289E-16,6.,0.));
#501=CARTESIAN_POINT('',(2.77555756156289E-16,6.,14.75));
#502=CARTESIAN_POINT('',(2.77555756156289E-16,6.,14.75));
#503=CARTESIAN_POINT('',(2.77555756156289E-16,6.,0.));
#504=CARTESIAN_POINT('Origin',(-10.4880884817015,0.499999999999999,0.));
#505=CARTESIAN_POINT('',(-10.4880884817015,0.,14.75));
#506=CARTESIAN_POINT('',(-10.4880884817015,0.,0.));
#507=CARTESIAN_POINT('',(-9.98865569685859,0.476190476190475,14.75));
#508=CARTESIAN_POINT('Origin',(-10.4880884817015,0.499999999999999,14.75));
#509=CARTESIAN_POINT('',(-9.98865569685859,0.476190476190475,0.));
#510=CARTESIAN_POINT('Origin',(-10.,0.,0.));
#511=CARTESIAN_POINT('',(-11.5,0.,14.75));
#512=CARTESIAN_POINT('',(-11.5,0.,0.));
#513=CARTESIAN_POINT('',(-10.,0.,14.75));
#514=CARTESIAN_POINT('Origin',(0.,0.,0.));
#515=CARTESIAN_POINT('',(2.5,0.,14.75));
#516=CARTESIAN_POINT('Origin',(0.,0.,14.75));
#517=CARTESIAN_POINT('',(2.5,3.06161699786838E-16,0.));
#518=CARTESIAN_POINT('Origin',(2.,6.,0.));
#519=CARTESIAN_POINT('',(2.,4.,14.75));
#520=CARTESIAN_POINT('Origin',(2.,6.,14.75));
#521=CARTESIAN_POINT('',(2.,4.,0.));
#522=CARTESIAN_POINT('Origin',(9.16515138991168,4.,0.));
#523=CARTESIAN_POINT('',(9.16515138991168,4.,14.75));
#524=CARTESIAN_POINT('',(9.16515138991168,4.,14.75));
#525=CARTESIAN_POINT('',(9.16515138991168,4.,0.));
#526=CARTESIAN_POINT('Origin',(0.,0.,0.));
#527=CARTESIAN_POINT('',(6.61437827766148,-7.5,14.75));
#528=CARTESIAN_POINT('Origin',(0.,0.,14.75));
#529=CARTESIAN_POINT('',(6.61437827766148,-7.5,0.));
#530=CARTESIAN_POINT('Origin',(1.,-7.5,0.));
#531=CARTESIAN_POINT('',(1.,-7.5,14.75));
#532=CARTESIAN_POINT('',(1.,-7.5,14.75));
#533=CARTESIAN_POINT('',(1.,-7.5,0.));
#534=CARTESIAN_POINT('Origin',(1.,-8.5,0.));
#535=CARTESIAN_POINT('Origin',(1.,-8.5,14.75));
#536=CARTESIAN_POINT('Origin',(0.,0.,0.));
#537=CARTESIAN_POINT('Origin',(0.,0.,14.75));
#538=CARTESIAN_POINT('Origin',(0.,0.,0.));
#539=CARTESIAN_POINT('Origin',(0.,0.,14.75));
#540=CARTESIAN_POINT('Origin',(0.,0.,14.75));
#541=UNCERTAINTY_MEASURE_WITH_UNIT(LENGTH_MEASURE(0.01),#545,
'DISTANCE_ACCURACY_VALUE',
'Maximum model space distance between geometric entities at asserted c
onnectivities');
#542=UNCERTAINTY_MEASURE_WITH_UNIT(LENGTH_MEASURE(0.01),#545,
'DISTANCE_ACCURACY_VALUE',
'Maximum model space distance between geometric entities at asserted c
onnectivities');
#543=(
GEOMETRIC_REPRESENTATION_CONTEXT(3)
GLOBAL_UNCERTAINTY_ASSIGNED_CONTEXT((#541))
GLOBAL_UNIT_ASSIGNED_CONTEXT((#545,#547,#548))
REPRESENTATION_CONTEXT('','3D')
);
#544=(
GEOMETRIC_REPRESENTATION_CONTEXT(3)
GLOBAL_UNCERTAINTY_ASSIGNED_CONTEXT((#542))
GLOBAL_UNIT_ASSIGNED_CONTEXT((#545,#547,#548))
REPRESENTATION_CONTEXT('','3D')
);
#545=(
LENGTH_UNIT()
NAMED_UNIT(*)
SI_UNIT(.MILLI.,.METRE.)
);
#546=(
LENGTH_UNIT()
NAMED_UNIT(*)
SI_UNIT(.CENTI.,.METRE.)
);
#547=(
NAMED_UNIT(*)
PLANE_ANGLE_UNIT()
SI_UNIT($,.RADIAN.)
);
#548=(
NAMED_UNIT(*)
SI_UNIT($,.STERADIAN.)
SOLID_ANGLE_UNIT()
);
#549=SHAPE_DEFINITION_REPRESENTATION(#550,#551);
#550=PRODUCT_DEFINITION_SHAPE('',$,#553);
#551=SHAPE_REPRESENTATION('',(#325),#543);
#552=PRODUCT_DEFINITION_CONTEXT('part definition',#557,'design');
#553=PRODUCT_DEFINITION('ARB 01','ARB 01',#554,#552);
#554=PRODUCT_DEFINITION_FORMATION('',$,#559);
#555=PRODUCT_RELATED_PRODUCT_CATEGORY('ARB 01','ARB 01',(#559));
#556=APPLICATION_PROTOCOL_DEFINITION('international standard',
'automotive_design',2009,#557);
#557=APPLICATION_CONTEXT(
'Core Data for Automotive Mechanical Design Process');
#558=PRODUCT_CONTEXT('part definition',#557,'mechanical');
#559=PRODUCT('ARB 01','ARB 01',$,(#558));
#560=PRESENTATION_STYLE_ASSIGNMENT((#561));
#561=SURFACE_STYLE_USAGE(.BOTH.,#564);
#562=SURFACE_STYLE_RENDERING_WITH_PROPERTIES($,#568,(#563));
#563=SURFACE_STYLE_TRANSPARENT(0.);
#564=SURFACE_SIDE_STYLE('',(#565,#562));
#565=SURFACE_STYLE_FILL_AREA(#566);
#566=FILL_AREA_STYLE('',(#567));
#567=FILL_AREA_STYLE_COLOUR('',#568);
#568=COLOUR_RGB('',0.745098039215686,0.737254901960784,0.729411764705882);
ENDSEC;
END-ISO-10303-21;
