ISO-10303-21;
HEADER;
FILE_DESCRIPTION (( 'STEP AP203' ),
    '1' );
FILE_NAME ('OTL01I.STEP',
    '2024-01-17T17:09:05',
    ( '' ),
    ( '' ),
    'SwSTEP 2.0',
    'SolidWorks 2018',
    '' );
FILE_SCHEMA (( 'CONFIG_CONTROL_DESIGN' ));
ENDSEC;

DATA;
#1 = CIRCLE ( 'NONE', #11, 3.000000000000000000 ) ;
#2 = ORIENTED_EDGE ( 'NONE', *, *, #324, .F. ) ;
#3 = CARTESIAN_POINT ( 'NONE',  ( 17.00000000000000000, 0.000000000000000000, 0.000000000000000000 ) ) ;
#4 = AXIS2_PLACEMENT_3D ( 'NONE', #172, #83, #302 ) ;
#5 = DIRECTION ( 'NONE',  ( 0.000000000000000000, 0.000000000000000000, 1.000000000000000000 ) ) ;
#6 = DIRECTION ( 'NONE',  ( -0.9950371902099890420, 0.000000000000000000, 0.09950371902099895693 ) ) ;
#7 = LINE ( 'NONE', #37, #244 ) ;
#8 = EDGE_LOOP ( 'NONE', ( #382, #318 ) ) ;
#9 = DATE_TIME_ROLE ( 'creation_date' ) ;
#10 = CALENDAR_DATE ( 2024, 17, 1 ) ;
#11 = AXIS2_PLACEMENT_3D ( 'NONE', #45, #313, #41 ) ;
#12 = ORIENTED_EDGE ( 'NONE', *, *, #121, .F. ) ;
#13 = ORIENTED_EDGE ( 'NONE', *, *, #236, .T. ) ;
#14 = PERSON_AND_ORGANIZATION_ROLE ( 'creator' ) ;
#15 = CLOSED_SHELL ( 'NONE', ( #312, #256, #96, #284, #188, #288, #223, #370, #100, #18, #315, #132 ) ) ;
#16 = ORIENTED_EDGE ( 'NONE', *, *, #246, .F. ) ;
#17 = AXIS2_PLACEMENT_3D ( 'NONE', #334, #360, #272 ) ;
#18 = ADVANCED_FACE ( 'NONE', ( #153 ), #103, .T. ) ;
#19 = ORIENTED_EDGE ( 'NONE', *, *, #347, .F. ) ;
#20 = AXIS2_PLACEMENT_3D ( 'NONE', #140, #355, #383 ) ;
#21 = CARTESIAN_POINT ( 'NONE',  ( 39.00000000000000000, 3.061616997868383141E-16, -2.500000000000000000 ) ) ;
#22 = ORIENTED_EDGE ( 'NONE', *, *, #258, .T. ) ;
#23 = DIRECTION ( 'NONE',  ( -1.000000000000000000, -0.000000000000000000, -0.000000000000000000 ) ) ;
#24 = CARTESIAN_POINT ( 'NONE',  ( 17.00000000000000000, 0.000000000000000000, 0.000000000000000000 ) ) ;
#25 = CARTESIAN_POINT ( 'NONE',  ( 34.00000000000000000, 0.000000000000000000, 3.000000000000000000 ) ) ;
#26 = FACE_OUTER_BOUND ( 'NONE', #353, .T. ) ;
#27 = CARTESIAN_POINT ( 'NONE',  ( 12.00000000000000000, 0.000000000000000000, 0.000000000000000000 ) ) ;
#28 = ORIENTED_EDGE ( 'NONE', *, *, #43, .T. ) ;
#29 = PERSON ( 'UNSPECIFIED', 'UNSPECIFIED', 'UNSPECIFIED', ('UNSPECIFIED'), ('UNSPECIFIED'), ('UNSPECIFIED') ) ;
#30 = PLANE ( 'NONE',  #4 ) ;
#31 = AXIS2_PLACEMENT_3D ( 'NONE', #247, #65, #342 ) ;
#32 = CARTESIAN_POINT ( 'NONE',  ( 39.00000000000000000, 0.000000000000000000, 0.000000000000000000 ) ) ;
#33 = VERTEX_POINT ( 'NONE', #104 ) ;
#34 = VERTEX_POINT ( 'NONE', #169 ) ;
#35 = CARTESIAN_POINT ( 'NONE',  ( 12.00000000000000000, 0.000000000000000000, 0.000000000000000000 ) ) ;
#36 = AXIS2_PLACEMENT_3D ( 'NONE', #183, #335, #248 ) ;
#37 = CARTESIAN_POINT ( 'NONE',  ( -19.22539334065129069, 0.000000000000000000, 3.000000000000000000 ) ) ;
#38 = VECTOR ( 'NONE', #227, 1000.000000000000114 ) ;
#39 = EDGE_CURVE ( 'NONE', #91, #34, #109, .T. ) ;
#40 = APPLICATION_PROTOCOL_DEFINITION ( 'international standard', 'config_control_design', 1994, #73 ) ;
#41 = DIRECTION ( 'NONE',  ( 0.000000000000000000, 0.000000000000000000, 1.000000000000000000 ) ) ;
#42 = LINE ( 'NONE', #217, #195 ) ;
#43 = EDGE_CURVE ( 'NONE', #286, #196, #78, .T. ) ;
#44 = LINE ( 'NONE', #57, #270 ) ;
#45 = CARTESIAN_POINT ( 'NONE',  ( 34.00000000000000000, 0.000000000000000000, 0.000000000000000000 ) ) ;
#46 = COORDINATED_UNIVERSAL_TIME_OFFSET ( 1, 0, .AHEAD. ) ;
#47 = ORIENTED_EDGE ( 'NONE', *, *, #193, .T. ) ;
#48 = PRODUCT_DEFINITION ( 'UNKNOWN', '', #146, #338 ) ;
#49 = ORIENTED_EDGE ( 'NONE', *, *, #324, .T. ) ;
#50 = VERTEX_POINT ( 'NONE', #377 ) ;
#51 = PLANE ( 'NONE',  #343 ) ;
#52 = APPROVAL_PERSON_ORGANIZATION ( #201, #290, #279 ) ;
#53 = CIRCLE ( 'NONE', #137, 3.000000000000000444 ) ;
#54 = DIRECTION ( 'NONE',  ( -0.9805806756909202226, 0.000000000000000000, 0.1961161351381839890 ) ) ;
#55 = DIRECTION ( 'NONE',  ( -1.000000000000000000, -0.000000000000000000, -0.000000000000000000 ) ) ;
#56 = EDGE_CURVE ( 'NONE', #87, #50, #136, .T. ) ;
#57 = CARTESIAN_POINT ( 'NONE',  ( -19.22539334065129069, 3.673940397442059868E-16, -3.000000000000000000 ) ) ;
#58 = PERSON_AND_ORGANIZATION ( #29, #174 ) ;
#59 = EDGE_LOOP ( 'NONE', ( #98, #28, #192, #191 ) ) ;
#60 = DIRECTION ( 'NONE',  ( -1.000000000000000000, -0.000000000000000000, -0.000000000000000000 ) ) ;
#61 = DIRECTION ( 'NONE',  ( -1.000000000000000000, -0.000000000000000000, -0.000000000000000000 ) ) ;
#62 = DIRECTION ( 'NONE',  ( -1.000000000000000000, -0.000000000000000000, -0.000000000000000000 ) ) ;
#63 = PERSON_AND_ORGANIZATION ( #29, #174 ) ;
#64 = FACE_OUTER_BOUND ( 'NONE', #120, .T. ) ;
#65 = DIRECTION ( 'NONE',  ( 0.000000000000000000, 0.000000000000000000, 1.000000000000000000 ) ) ;
#66 = VERTEX_POINT ( 'NONE', #106 ) ;
#67 = CARTESIAN_POINT ( 'NONE',  ( 0.000000000000000000, 0.000000000000000000, 0.000000000000000000 ) ) ;
#68 = SECURITY_CLASSIFICATION_LEVEL ( 'unclassified' ) ;
#69 = CC_DESIGN_PERSON_AND_ORGANIZATION_ASSIGNMENT ( #118, #14, ( #48 ) ) ;
#70 = PERSON_AND_ORGANIZATION ( #29, #174 ) ;
#71 = EDGE_LOOP ( 'NONE', ( #337, #49, #99, #127 ) ) ;
#72 = APPROVAL_STATUS ( 'not_yet_approved' ) ;
#73 = APPLICATION_CONTEXT ( 'configuration controlled 3d designs of mechanical parts and assemblies' ) ;
#74 = VECTOR ( 'NONE', #238, 1000.000000000000000 ) ;
#75 = ORIENTED_EDGE ( 'NONE', *, *, #246, .T. ) ;
#76 = AXIS2_PLACEMENT_3D ( 'NONE', #329, #266, #326 ) ;
#77 = CALENDAR_DATE ( 2024, 17, 1 ) ;
#78 = LINE ( 'NONE', #21, #38 ) ;
#79 = DIRECTION ( 'NONE',  ( 0.000000000000000000, 0.000000000000000000, 1.000000000000000000 ) ) ;
#80 = CC_DESIGN_PERSON_AND_ORGANIZATION_ASSIGNMENT ( #70, #253, ( #287 ) ) ;
#81 = CARTESIAN_POINT ( 'NONE',  ( 17.00000000000000000, 0.000000000000000000, 3.000000000000000000 ) ) ;
#82 = FACE_OUTER_BOUND ( 'NONE', #170, .T. ) ;
#83 = DIRECTION ( 'NONE',  ( -1.000000000000000000, 0.000000000000000000, -0.000000000000000000 ) ) ;
#84 = CARTESIAN_POINT ( 'NONE',  ( 12.00000000000000000, 0.000000000000000000, 3.000000000000000444 ) ) ;
#85 = LOCAL_TIME ( 18, 9, 5.000000000000000000, #280 ) ;
#86 = EDGE_LOOP ( 'NONE', ( #332, #197, #341, #221 ) ) ;
#87 = VERTEX_POINT ( 'NONE', #198 ) ;
#88 = CC_DESIGN_DATE_AND_TIME_ASSIGNMENT ( #208, #9, ( #48 ) ) ;
#89 = DIRECTION ( 'NONE',  ( -1.000000000000000000, -0.000000000000000000, -0.000000000000000000 ) ) ;
#90 = DIRECTION ( 'NONE',  ( -1.000000000000000000, -0.000000000000000000, -0.000000000000000000 ) ) ;
#91 = VERTEX_POINT ( 'NONE', #81 ) ;
#92 = AXIS2_PLACEMENT_3D ( 'NONE', #212, #331, #245 ) ;
#93 = PERSON_AND_ORGANIZATION ( #29, #174 ) ;
#94 = EDGE_LOOP ( 'NONE', ( #204, #220 ) ) ;
#95 = DATE_TIME_ROLE ( 'classification_date' ) ;
#96 = ADVANCED_FACE ( 'NONE', ( #186 ), #259, .T. ) ;
#97 = CC_DESIGN_PERSON_AND_ORGANIZATION_ASSIGNMENT ( #367, #219, ( #146 ) ) ;
#98 = ORIENTED_EDGE ( 'NONE', *, *, #347, .T. ) ;
#99 = ORIENTED_EDGE ( 'NONE', *, *, #346, .T. ) ;
#100 = ADVANCED_FACE ( 'NONE', ( #158, #147 ), #231, .F. ) ;
#101 = EDGE_CURVE ( 'NONE', #87, #210, #357, .T. ) ;
#102 = LOCAL_TIME ( 18, 9, 5.000000000000000000, #378 ) ;
#103 = CYLINDRICAL_SURFACE ( 'NONE', #298, 3.000000000000000000 ) ;
#104 = CARTESIAN_POINT ( 'NONE',  ( 0.000000000000000000, 0.000000000000000000, 3.000000000000000444 ) ) ;
#105 = AXIS2_PLACEMENT_3D ( 'NONE', #122, #211, #184 ) ;
#106 = CARTESIAN_POINT ( 'NONE',  ( 39.00000000000000000, 0.000000000000000000, 2.500000000000000000 ) ) ;
#107 = VERTEX_POINT ( 'NONE', #176 ) ;
#108 = CARTESIAN_POINT ( 'NONE',  ( 17.00000000000000000, 6.123233995736766282E-16, -5.000000000000000000 ) ) ;
#109 = CIRCLE ( 'NONE', #243, 3.000000000000000000 ) ;
#110 = PLANE ( 'NONE',  #20 ) ;
#111 = DIRECTION ( 'NONE',  ( -1.000000000000000000, -0.000000000000000000, -0.000000000000000000 ) ) ;
#112 = APPROVAL_DATE_TIME ( #157, #290 ) ;
#113 = CIRCLE ( 'NONE', #251, 6.000000000000000000 ) ;
#114 = EDGE_CURVE ( 'NONE', #33, #107, #291, .T. ) ;
#115 = DIRECTION ( 'NONE',  ( 0.000000000000000000, 0.000000000000000000, 1.000000000000000000 ) ) ;
#116 = DIRECTION ( 'NONE',  ( 0.000000000000000000, 0.000000000000000000, 1.000000000000000000 ) ) ;
#117 = CARTESIAN_POINT ( 'NONE',  ( -19.22539334065129069, 0.000000000000000000, 0.000000000000000000 ) ) ;
#118 = PERSON_AND_ORGANIZATION ( #29, #174 ) ;
#119 = FACE_OUTER_BOUND ( 'NONE', #59, .T. ) ;
#120 = EDGE_LOOP ( 'NONE', ( #301, #379, #75, #175 ) ) ;
#121 = EDGE_CURVE ( 'NONE', #50, #345, #113, .T. ) ;
#122 = CARTESIAN_POINT ( 'NONE',  ( 17.00000000000000000, 0.000000000000000000, 0.000000000000000000 ) ) ;
#123 = AXIS2_PLACEMENT_3D ( 'NONE', #213, #61, #150 ) ;
#124 = CALENDAR_DATE ( 2024, 17, 1 ) ;
#125 = APPROVAL_ROLE ( '' ) ;
#126 = ORIENTED_EDGE ( 'NONE', *, *, #114, .F. ) ;
#127 = ORIENTED_EDGE ( 'NONE', *, *, #236, .F. ) ;
#128 = APPLICATION_PROTOCOL_DEFINITION ( 'international standard', 'config_control_design', 1994, #160 ) ;
#129 = APPROVAL_DATE_TIME ( #344, #330 ) ;
#130 = VECTOR ( 'NONE', #54, 1000.000000000000000 ) ;
#131 = AXIS2_PLACEMENT_3D ( 'NONE', #67, #178, #333 ) ;
#132 = ADVANCED_FACE ( 'NONE', ( #209 ), #30, .F. ) ;
#133 = CARTESIAN_POINT ( 'NONE',  ( 17.00000000000000000, 0.000000000000000000, 0.000000000000000000 ) ) ;
#134 = CONICAL_SURFACE ( 'NONE', #155, 2.500000000000000000, 0.09966865249116207970 ) ;
#135 = DIRECTION ( 'NONE',  ( -1.000000000000000000, -0.000000000000000000, -0.000000000000000000 ) ) ;
#136 = LINE ( 'NONE', #108, #265 ) ;
#137 = AXIS2_PLACEMENT_3D ( 'NONE', #299, #111, #321 ) ;
#138 = CIRCLE ( 'NONE', #123, 2.500000000000000000 ) ;
#139 = CYLINDRICAL_SURFACE ( 'NONE', #230, 3.000000000000000000 ) ;
#140 = CARTESIAN_POINT ( 'NONE',  ( 12.00000000000000000, 3.000000000000000444, 0.000000000000000000 ) ) ;
#141 = CARTESIAN_POINT ( 'NONE',  ( 17.00000000000000000, 0.000000000000000000, 5.000000000000000000 ) ) ;
#142 = CC_DESIGN_DATE_AND_TIME_ASSIGNMENT ( #273, #95, ( #375 ) ) ;
#143 = DIRECTION ( 'NONE',  ( 0.000000000000000000, 0.000000000000000000, -1.000000000000000000 ) ) ;
#144 = APPROVAL_PERSON_ORGANIZATION ( #93, #330, #185 ) ;
#145 = CARTESIAN_POINT ( 'NONE',  ( -19.22539334065129069, 0.000000000000000000, 0.000000000000000000 ) ) ;
#146 = PRODUCT_DEFINITION_FORMATION_WITH_SPECIFIED_SOURCE ( 'ANY', '', #287, .NOT_KNOWN. ) ;
#147 = FACE_BOUND ( 'NONE', #8, .T. ) ;
#148 = EDGE_LOOP ( 'NONE', ( #180, #13, #374, #348 ) ) ;
#149 = DIRECTION ( 'NONE',  ( -1.000000000000000000, -0.000000000000000000, -0.000000000000000000 ) ) ;
#150 = DIRECTION ( 'NONE',  ( 0.000000000000000000, 0.000000000000000000, 1.000000000000000000 ) ) ;
#151 = CIRCLE ( 'NONE', #376, 5.000000000000000000 ) ;
#152 = DIRECTION ( 'NONE',  ( 0.000000000000000000, 0.000000000000000000, 1.000000000000000000 ) ) ;
#153 = FACE_OUTER_BOUND ( 'NONE', #148, .T. ) ;
#154 = MANIFOLD_SOLID_BREP ( 'Révolution1', #15 ) ;
#155 = AXIS2_PLACEMENT_3D ( 'NONE', #271, #62, #156 ) ;
#156 = DIRECTION ( 'NONE',  ( 0.000000000000000000, 0.000000000000000000, 1.000000000000000000 ) ) ;
#157 = DATE_AND_TIME ( #317, #340 ) ;
#158 = FACE_OUTER_BOUND ( 'NONE', #94, .T. ) ;
#159 = CC_DESIGN_PERSON_AND_ORGANIZATION_ASSIGNMENT ( #63, #187, ( #375 ) ) ;
#160 = APPLICATION_CONTEXT ( 'configuration controlled 3d designs of mechanical parts and assemblies' ) ;
#161 =( NAMED_UNIT ( * ) SI_UNIT ( $, .STERADIAN. ) SOLID_ANGLE_UNIT ( ) );
#162 = CIRCLE ( 'NONE', #105, 3.000000000000000000 ) ;
#163 = AXIS2_PLACEMENT_3D ( 'NONE', #323, #171, #202 ) ;
#164 = VERTEX_POINT ( 'NONE', #84 ) ;
#165 = ORIENTED_EDGE ( 'NONE', *, *, #101, .T. ) ;
#166 = DIRECTION ( 'NONE',  ( -1.000000000000000000, -0.000000000000000000, -0.000000000000000000 ) ) ;
#167 = AXIS2_PLACEMENT_3D ( 'NONE', #117, #359, #5 ) ;
#168 = DIRECTION ( 'NONE',  ( -1.000000000000000000, 0.000000000000000000, -0.000000000000000000 ) ) ;
#169 = CARTESIAN_POINT ( 'NONE',  ( 17.00000000000000000, 3.673940397442059868E-16, -3.000000000000000000 ) ) ;
#170 = EDGE_LOOP ( 'NONE', ( #226, #239, #282, #216 ) ) ;
#171 = DIRECTION ( 'NONE',  ( -1.000000000000000000, -0.000000000000000000, -0.000000000000000000 ) ) ;
#172 = CARTESIAN_POINT ( 'NONE',  ( 39.00000000000000000, 2.500000000000000000, 0.000000000000000000 ) ) ;
#173 = AXIS2_PLACEMENT_3D ( 'NONE', #35, #60, #115 ) ;
#174 = ORGANIZATION ( 'UNSPECIFIED', 'UNSPECIFIED', '' ) ;
#175 = ORIENTED_EDGE ( 'NONE', *, *, #264, .F. ) ;
#176 = CARTESIAN_POINT ( 'NONE',  ( 0.000000000000000000, 3.673940397442060361E-16, -3.000000000000000444 ) ) ;
#177 = DIRECTION ( 'NONE',  ( 0.000000000000000000, 0.000000000000000000, 1.000000000000000000 ) ) ;
#178 = DIRECTION ( 'NONE',  ( -1.000000000000000000, -0.000000000000000000, -0.000000000000000000 ) ) ;
#179 = EDGE_CURVE ( 'NONE', #196, #34, #44, .T. ) ;
#180 = ORIENTED_EDGE ( 'NONE', *, *, #179, .F. ) ;
#181 = VERTEX_POINT ( 'NONE', #296 ) ;
#182 = EDGE_CURVE ( 'NONE', #210, #345, #305, .T. ) ;
#183 = CARTESIAN_POINT ( 'NONE',  ( 39.00000000000000000, 0.000000000000000000, 0.000000000000000000 ) ) ;
#184 = DIRECTION ( 'NONE',  ( 0.000000000000000000, 0.000000000000000000, 1.000000000000000000 ) ) ;
#185 = APPROVAL_ROLE ( '' ) ;
#186 = FACE_OUTER_BOUND ( 'NONE', #86, .T. ) ;
#187 = PERSON_AND_ORGANIZATION_ROLE ( 'classification_officer' ) ;
#188 = ADVANCED_FACE ( 'NONE', ( #281 ), #51, .F. ) ;
#189 = LOCAL_TIME ( 18, 9, 5.000000000000000000, #46 ) ;
#190 = ORIENTED_EDGE ( 'NONE', *, *, #182, .T. ) ;
#191 = ORIENTED_EDGE ( 'NONE', *, *, #346, .F. ) ;
#192 = ORIENTED_EDGE ( 'NONE', *, *, #384, .F. ) ;
#193 = EDGE_CURVE ( 'NONE', #164, #181, #232, .T. ) ;
#194 = DIRECTION ( 'NONE',  ( -0.9805806756909202226, 2.401729971581267947E-17, -0.1961161351381839890 ) ) ;
#195 = VECTOR ( 'NONE', #6, 1000.000000000000114 ) ;
#196 = VERTEX_POINT ( 'NONE', #233 ) ;
#197 = ORIENTED_EDGE ( 'NONE', *, *, #56, .T. ) ;
#198 = CARTESIAN_POINT ( 'NONE',  ( 17.00000000000000000, 6.735557395310443009E-16, -5.000000000000000000 ) ) ;
#199 = EDGE_CURVE ( 'NONE', #210, #87, #151, .T. ) ;
#200 = DIRECTION ( 'NONE',  ( 0.000000000000000000, 0.000000000000000000, 1.000000000000000000 ) ) ;
#201 = PERSON_AND_ORGANIZATION ( #29, #174 ) ;
#202 = DIRECTION ( 'NONE',  ( 0.000000000000000000, 0.000000000000000000, 1.000000000000000000 ) ) ;
#203 = CYLINDRICAL_SURFACE ( 'NONE', #17, 3.000000000000000444 ) ;
#204 = ORIENTED_EDGE ( 'NONE', *, *, #199, .F. ) ;
#205 = CARTESIAN_POINT ( 'NONE',  ( 0.000000000000000000, 0.000000000000000000, 0.000000000000000000 ) ) ;
#206 = DIRECTION ( 'NONE',  ( -1.000000000000000000, -0.000000000000000000, -0.000000000000000000 ) ) ;
#207 = DIRECTION ( 'NONE',  ( 0.000000000000000000, 0.000000000000000000, 1.000000000000000000 ) ) ;
#208 = DATE_AND_TIME ( #300, #102 ) ;
#209 = FACE_OUTER_BOUND ( 'NONE', #368, .T. ) ;
#210 = VERTEX_POINT ( 'NONE', #354 ) ;
#211 = DIRECTION ( 'NONE',  ( -1.000000000000000000, -0.000000000000000000, -0.000000000000000000 ) ) ;
#212 = CARTESIAN_POINT ( 'NONE',  ( 17.00000000000000000, 0.000000000000000000, 0.000000000000000000 ) ) ;
#213 = CARTESIAN_POINT ( 'NONE',  ( 39.00000000000000000, 0.000000000000000000, 0.000000000000000000 ) ) ;
#214 = CONICAL_SURFACE ( 'NONE', #36, 2.500000000000000000, 0.09966865249116207970 ) ;
#215 = FACE_OUTER_BOUND ( 'NONE', #328, .T. ) ;
#216 = ORIENTED_EDGE ( 'NONE', *, *, #306, .F. ) ;
#217 = CARTESIAN_POINT ( 'NONE',  ( 39.00000000000000000, 0.000000000000000000, 2.500000000000000000 ) ) ;
#218 = AXIS2_PLACEMENT_3D ( 'NONE', #32, #242, #152 ) ;
#219 = PERSON_AND_ORGANIZATION_ROLE ( 'design_supplier' ) ;
#220 = ORIENTED_EDGE ( 'NONE', *, *, #101, .F. ) ;
#221 = ORIENTED_EDGE ( 'NONE', *, *, #182, .F. ) ;
#222 = EDGE_CURVE ( 'NONE', #181, #164, #53, .T. ) ;
#223 = ADVANCED_FACE ( 'NONE', ( #224, #285 ), #110, .F. ) ;
#224 = FACE_BOUND ( 'NONE', #327, .T. ) ;
#225 =( GEOMETRIC_REPRESENTATION_CONTEXT ( 3 ) GLOBAL_UNCERTAINTY_ASSIGNED_CONTEXT ( ( #339 ) ) GLOBAL_UNIT_ASSIGNED_CONTEXT ( ( #278, #277, #161 ) ) REPRESENTATION_CONTEXT ( 'NONE', 'WORKASPACE' ) );
#226 = ORIENTED_EDGE ( 'NONE', *, *, #384, .T. ) ;
#227 = DIRECTION ( 'NONE',  ( -0.9950371902099890420, 1.218569110023239810E-17, -0.09950371902099895693 ) ) ;
#228 = DATE_AND_TIME ( #77, #308 ) ;
#229 = EDGE_LOOP ( 'NONE', ( #276, #292 ) ) ;
#230 = AXIS2_PLACEMENT_3D ( 'NONE', #145, #89, #116 ) ;
#231 = PLANE ( 'NONE',  #316 ) ;
#232 = CIRCLE ( 'NONE', #267, 3.000000000000000444 ) ;
#233 = CARTESIAN_POINT ( 'NONE',  ( 34.00000000000000000, 3.673940397442059868E-16, -3.000000000000000000 ) ) ;
#234 = CARTESIAN_POINT ( 'NONE',  ( -19.22539334065129069, 0.000000000000000000, 3.000000000000000444 ) ) ;
#235 = DIRECTION ( 'NONE',  ( -1.000000000000000000, -0.000000000000000000, -0.000000000000000000 ) ) ;
#236 = EDGE_CURVE ( 'NONE', #196, #250, #274, .T. ) ;
#237 = COORDINATED_UNIVERSAL_TIME_OFFSET ( 1, 0, .AHEAD. ) ;
#238 = DIRECTION ( 'NONE',  ( -1.000000000000000000, -0.000000000000000000, -0.000000000000000000 ) ) ;
#239 = ORIENTED_EDGE ( 'NONE', *, *, #179, .T. ) ;
#240 = DIRECTION ( 'NONE',  ( 0.000000000000000000, 0.000000000000000000, 1.000000000000000000 ) ) ;
#241 = PRODUCT_RELATED_PRODUCT_CATEGORY ( 'detail', '', ( #287 ) ) ;
#242 = DIRECTION ( 'NONE',  ( -1.000000000000000000, -0.000000000000000000, -0.000000000000000000 ) ) ;
#243 = AXIS2_PLACEMENT_3D ( 'NONE', #133, #166, #79 ) ;
#244 = VECTOR ( 'NONE', #275, 1000.000000000000000 ) ;
#245 = DIRECTION ( 'NONE',  ( 0.000000000000000000, 0.000000000000000000, 1.000000000000000000 ) ) ;
#246 = EDGE_CURVE ( 'NONE', #164, #33, #295, .T. ) ;
#247 = CARTESIAN_POINT ( 'NONE',  ( 0.000000000000000000, 0.000000000000000000, 0.000000000000000000 ) ) ;
#248 = DIRECTION ( 'NONE',  ( 0.000000000000000000, 0.000000000000000000, 1.000000000000000000 ) ) ;
#249 = ORIENTED_EDGE ( 'NONE', *, *, #193, .F. ) ;
#250 = VERTEX_POINT ( 'NONE', #25 ) ;
#251 = AXIS2_PLACEMENT_3D ( 'NONE', #27, #235, #177 ) ;
#252 = MECHANICAL_CONTEXT ( 'NONE', #73, 'mechanical' ) ;
#253 = PERSON_AND_ORGANIZATION_ROLE ( 'design_owner' ) ;
#254 = ORIENTED_EDGE ( 'NONE', *, *, #121, .T. ) ;
#255 = CC_DESIGN_APPROVAL ( #303, ( #375 ) ) ;
#256 = ADVANCED_FACE ( 'NONE', ( #82 ), #139, .T. ) ;
#257 = CIRCLE ( 'NONE', #218, 2.500000000000000000 ) ;
#258 = EDGE_CURVE ( 'NONE', #181, #107, #381, .T. ) ;
#259 = CONICAL_SURFACE ( 'NONE', #322, 5.000000000000000000, 0.1973955598498806641 ) ;
#260 = CARTESIAN_POINT ( 'NONE',  ( -19.22539334065129069, 0.000000000000000000, 0.000000000000000000 ) ) ;
#261 = ORIENTED_EDGE ( 'NONE', *, *, #56, .F. ) ;
#262 = DIRECTION ( 'NONE',  ( -0.000000000000000000, 0.000000000000000000, 1.000000000000000000 ) ) ;
#263 = DIRECTION ( 'NONE',  ( 1.000000000000000000, 0.000000000000000000, 0.000000000000000000 ) ) ;
#264 = EDGE_CURVE ( 'NONE', #107, #33, #352, .T. ) ;
#265 = VECTOR ( 'NONE', #194, 1000.000000000000000 ) ;
#266 = DIRECTION ( 'NONE',  ( -1.000000000000000000, -0.000000000000000000, -0.000000000000000000 ) ) ;
#267 = AXIS2_PLACEMENT_3D ( 'NONE', #385, #206, #200 ) ;
#268 = SHAPE_DEFINITION_REPRESENTATION ( #349, #350 ) ;
#269 = CARTESIAN_POINT ( 'NONE',  ( -19.22539334065129069, 3.673940397442060361E-16, -3.000000000000000444 ) ) ;
#270 = VECTOR ( 'NONE', #297, 1000.000000000000000 ) ;
#271 = CARTESIAN_POINT ( 'NONE',  ( 39.00000000000000000, 0.000000000000000000, 0.000000000000000000 ) ) ;
#272 = DIRECTION ( 'NONE',  ( 0.000000000000000000, 0.000000000000000000, 1.000000000000000000 ) ) ;
#273 = DATE_AND_TIME ( #124, #189 ) ;
#274 = CIRCLE ( 'NONE', #163, 3.000000000000000000 ) ;
#275 = DIRECTION ( 'NONE',  ( -1.000000000000000000, -0.000000000000000000, -0.000000000000000000 ) ) ;
#276 = ORIENTED_EDGE ( 'NONE', *, *, #114, .T. ) ;
#277 =( NAMED_UNIT ( * ) PLANE_ANGLE_UNIT ( ) SI_UNIT ( $, .RADIAN. ) );
#278 =( LENGTH_UNIT ( ) NAMED_UNIT ( * ) SI_UNIT ( .MILLI., .METRE. ) );
#279 = APPROVAL_ROLE ( '' ) ;
#280 = COORDINATED_UNIVERSAL_TIME_OFFSET ( 1, 0, .AHEAD. ) ;
#281 = FACE_OUTER_BOUND ( 'NONE', #229, .T. ) ;
#282 = ORIENTED_EDGE ( 'NONE', *, *, #39, .F. ) ;
#283 = PERSON_AND_ORGANIZATION_ROLE ( 'creator' ) ;
#284 = ADVANCED_FACE ( 'NONE', ( #215 ), #203, .T. ) ;
#285 = FACE_OUTER_BOUND ( 'NONE', #320, .T. ) ;
#286 = VERTEX_POINT ( 'NONE', #304 ) ;
#287 = PRODUCT ( 'OTL01I', 'OTL01I', '', ( #252 ) ) ;
#288 = ADVANCED_FACE ( 'NONE', ( #64 ), #363, .T. ) ;
#289 = CARTESIAN_POINT ( 'NONE',  ( 17.00000000000000000, 0.000000000000000000, 0.000000000000000000 ) ) ;
#290 = APPROVAL ( #72, 'UNSPECIFIED' ) ;
#291 = CIRCLE ( 'NONE', #76, 3.000000000000000444 ) ;
#292 = ORIENTED_EDGE ( 'NONE', *, *, #264, .T. ) ;
#293 = DIRECTION ( 'NONE',  ( 0.000000000000000000, 0.000000000000000000, 1.000000000000000000 ) ) ;
#294 = APPROVAL_DATE_TIME ( #228, #303 ) ;
#295 = LINE ( 'NONE', #234, #74 ) ;
#296 = CARTESIAN_POINT ( 'NONE',  ( 12.00000000000000000, 3.673940397442060361E-16, -3.000000000000000444 ) ) ;
#297 = DIRECTION ( 'NONE',  ( -1.000000000000000000, -0.000000000000000000, -0.000000000000000000 ) ) ;
#298 = AXIS2_PLACEMENT_3D ( 'NONE', #260, #23, #380 ) ;
#299 = CARTESIAN_POINT ( 'NONE',  ( 12.00000000000000000, 0.000000000000000000, 0.000000000000000000 ) ) ;
#300 = CALENDAR_DATE ( 2024, 17, 1 ) ;
#301 = ORIENTED_EDGE ( 'NONE', *, *, #258, .F. ) ;
#302 = DIRECTION ( 'NONE',  ( -0.000000000000000000, 0.000000000000000000, 1.000000000000000000 ) ) ;
#303 = APPROVAL ( #309, 'UNSPECIFIED' ) ;
#304 = CARTESIAN_POINT ( 'NONE',  ( 39.00000000000000000, 3.367778697655221505E-16, -2.500000000000000000 ) ) ;
#305 = LINE ( 'NONE', #141, #130 ) ;
#306 = EDGE_CURVE ( 'NONE', #250, #91, #7, .T. ) ;
#307 = EDGE_CURVE ( 'NONE', #34, #91, #162, .T. ) ;
#308 = LOCAL_TIME ( 18, 9, 5.000000000000000000, #362 ) ;
#309 = APPROVAL_STATUS ( 'not_yet_approved' ) ;
#310 = ORIENTED_EDGE ( 'NONE', *, *, #222, .F. ) ;
#311 = CC_DESIGN_APPROVAL ( #290, ( #146 ) ) ;
#312 = ADVANCED_FACE ( 'NONE', ( #119 ), #134, .T. ) ;
#313 = DIRECTION ( 'NONE',  ( -1.000000000000000000, -0.000000000000000000, -0.000000000000000000 ) ) ;
#314 = FACE_OUTER_BOUND ( 'NONE', #71, .T. ) ;
#315 = ADVANCED_FACE ( 'NONE', ( #314 ), #214, .T. ) ;
#316 = AXIS2_PLACEMENT_3D ( 'NONE', #319, #168, #262 ) ;
#317 = CALENDAR_DATE ( 2024, 17, 1 ) ;
#318 = ORIENTED_EDGE ( 'NONE', *, *, #307, .T. ) ;
#319 = CARTESIAN_POINT ( 'NONE',  ( 17.00000000000000000, 5.000000000000000000, 0.000000000000000000 ) ) ;
#320 = EDGE_LOOP ( 'NONE', ( #358, #254 ) ) ;
#321 = DIRECTION ( 'NONE',  ( 0.000000000000000000, 0.000000000000000000, 1.000000000000000000 ) ) ;
#322 = AXIS2_PLACEMENT_3D ( 'NONE', #289, #135, #293 ) ;
#323 = CARTESIAN_POINT ( 'NONE',  ( 34.00000000000000000, 0.000000000000000000, 0.000000000000000000 ) ) ;
#324 = EDGE_CURVE ( 'NONE', #286, #66, #257, .T. ) ;
#325 = CONICAL_SURFACE ( 'NONE', #92, 5.000000000000000000, 0.1973955598498806641 ) ;
#326 = DIRECTION ( 'NONE',  ( 0.000000000000000000, 0.000000000000000000, 1.000000000000000000 ) ) ;
#327 = EDGE_LOOP ( 'NONE', ( #249, #310 ) ) ;
#328 = EDGE_LOOP ( 'NONE', ( #47, #22, #126, #16 ) ) ;
#329 = CARTESIAN_POINT ( 'NONE',  ( 0.000000000000000000, 0.000000000000000000, 0.000000000000000000 ) ) ;
#330 = APPROVAL ( #371, 'UNSPECIFIED' ) ;
#331 = DIRECTION ( 'NONE',  ( -1.000000000000000000, -0.000000000000000000, -0.000000000000000000 ) ) ;
#332 = ORIENTED_EDGE ( 'NONE', *, *, #199, .T. ) ;
#333 = DIRECTION ( 'NONE',  ( 0.000000000000000000, 0.000000000000000000, 1.000000000000000000 ) ) ;
#334 = CARTESIAN_POINT ( 'NONE',  ( -19.22539334065129069, 0.000000000000000000, 0.000000000000000000 ) ) ;
#335 = DIRECTION ( 'NONE',  ( -1.000000000000000000, -0.000000000000000000, -0.000000000000000000 ) ) ;
#336 = APPROVAL_PERSON_ORGANIZATION ( #372, #303, #125 ) ;
#337 = ORIENTED_EDGE ( 'NONE', *, *, #43, .F. ) ;
#338 = DESIGN_CONTEXT ( 'detailed design', #160, 'design' ) ;
#339 = UNCERTAINTY_MEASURE_WITH_UNIT (LENGTH_MEASURE( 1.000000000000000082E-05 ), #278, 'distance_accuracy_value', 'NONE');
#340 = LOCAL_TIME ( 18, 9, 5.000000000000000000, #237 ) ;
#341 = ORIENTED_EDGE ( 'NONE', *, *, #366, .F. ) ;
#342 = DIRECTION ( 'NONE',  ( 1.000000000000000000, 0.000000000000000000, 0.000000000000000000 ) ) ;
#343 = AXIS2_PLACEMENT_3D ( 'NONE', #205, #263, #143 ) ;
#344 = DATE_AND_TIME ( #10, #85 ) ;
#345 = VERTEX_POINT ( 'NONE', #365 ) ;
#346 = EDGE_CURVE ( 'NONE', #66, #250, #42, .T. ) ;
#347 = EDGE_CURVE ( 'NONE', #66, #286, #138, .T. ) ;
#348 = ORIENTED_EDGE ( 'NONE', *, *, #307, .F. ) ;
#349 = PRODUCT_DEFINITION_SHAPE ( 'NONE', 'NONE',  #48 ) ;
#350 = ADVANCED_BREP_SHAPE_REPRESENTATION ( 'OTL01I', ( #154, #31 ), #225 ) ;
#351 = CIRCLE ( 'NONE', #173, 6.000000000000000000 ) ;
#352 = CIRCLE ( 'NONE', #131, 3.000000000000000444 ) ;
#353 = EDGE_LOOP ( 'NONE', ( #261, #165, #190, #12 ) ) ;
#354 = CARTESIAN_POINT ( 'NONE',  ( 17.00000000000000000, 0.000000000000000000, 5.000000000000000000 ) ) ;
#355 = DIRECTION ( 'NONE',  ( 1.000000000000000000, 0.000000000000000000, 0.000000000000000000 ) ) ;
#356 = AXIS2_PLACEMENT_3D ( 'NONE', #24, #55, #240 ) ;
#357 = CIRCLE ( 'NONE', #356, 5.000000000000000000 ) ;
#358 = ORIENTED_EDGE ( 'NONE', *, *, #366, .T. ) ;
#359 = DIRECTION ( 'NONE',  ( -1.000000000000000000, -0.000000000000000000, -0.000000000000000000 ) ) ;
#360 = DIRECTION ( 'NONE',  ( -1.000000000000000000, -0.000000000000000000, -0.000000000000000000 ) ) ;
#361 = CC_DESIGN_SECURITY_CLASSIFICATION ( #375, ( #146 ) ) ;
#362 = COORDINATED_UNIVERSAL_TIME_OFFSET ( 1, 0, .AHEAD. ) ;
#363 = CYLINDRICAL_SURFACE ( 'NONE', #167, 3.000000000000000444 ) ;
#364 = CC_DESIGN_APPROVAL ( #330, ( #48 ) ) ;
#365 = CARTESIAN_POINT ( 'NONE',  ( 12.00000000000000000, 0.000000000000000000, 6.000000000000000000 ) ) ;
#366 = EDGE_CURVE ( 'NONE', #345, #50, #351, .T. ) ;
#367 = PERSON_AND_ORGANIZATION ( #29, #174 ) ;
#368 = EDGE_LOOP ( 'NONE', ( #19, #2 ) ) ;
#369 = CC_DESIGN_PERSON_AND_ORGANIZATION_ASSIGNMENT ( #58, #283, ( #146 ) ) ;
#370 = ADVANCED_FACE ( 'NONE', ( #26 ), #325, .T. ) ;
#371 = APPROVAL_STATUS ( 'not_yet_approved' ) ;
#372 = PERSON_AND_ORGANIZATION ( #29, #174 ) ;
#373 = VECTOR ( 'NONE', #90, 1000.000000000000000 ) ;
#374 = ORIENTED_EDGE ( 'NONE', *, *, #306, .T. ) ;
#375 = SECURITY_CLASSIFICATION ( '', '', #68 ) ;
#376 = AXIS2_PLACEMENT_3D ( 'NONE', #3, #149, #207 ) ;
#377 = CARTESIAN_POINT ( 'NONE',  ( 12.00000000000000000, 7.347880794884119736E-16, -6.000000000000000000 ) ) ;
#378 = COORDINATED_UNIVERSAL_TIME_OFFSET ( 1, 0, .AHEAD. ) ;
#379 = ORIENTED_EDGE ( 'NONE', *, *, #222, .T. ) ;
#380 = DIRECTION ( 'NONE',  ( 0.000000000000000000, 0.000000000000000000, 1.000000000000000000 ) ) ;
#381 = LINE ( 'NONE', #269, #373 ) ;
#382 = ORIENTED_EDGE ( 'NONE', *, *, #39, .T. ) ;
#383 = DIRECTION ( 'NONE',  ( 0.000000000000000000, 0.000000000000000000, -1.000000000000000000 ) ) ;
#384 = EDGE_CURVE ( 'NONE', #250, #196, #1, .T. ) ;
#385 = CARTESIAN_POINT ( 'NONE',  ( 12.00000000000000000, 0.000000000000000000, 0.000000000000000000 ) ) ;
ENDSEC;
END-ISO-10303-21;
