ISO-10303-21;
HEADER;
/* Generated by software containing ST-Developer
 * from STEP Tools, Inc. (www.steptools.com) 
 */

FILE_DESCRIPTION(
/* description */ (''),
/* implementation_level */ '2;1');

FILE_NAME(
/* name */ 'axe_servo.step',
/* time_stamp */ '2024-01-26T08:32:06+01:00',
/* author */ (''),
/* organization */ (''),
/* preprocessor_version */ 'ST-DEVELOPER v20',
/* originating_system */ 'Autodesk Translation Framework v12.14.0.127',

/* authorisation */ '');

FILE_SCHEMA (('AUTOMOTIVE_DESIGN { 1 0 10303 214 3 1 1 }'));
ENDSEC;

DATA;
#10=MECHANICAL_DESIGN_GEOMETRIC_PRESENTATION_REPRESENTATION('',(#13),#391);
#11=SHAPE_REPRESENTATION_RELATIONSHIP('SRR','None',#398,#12);
#12=ADVANCED_BREP_SHAPE_REPRESENTATION('',(#14),#390);
#13=STYLED_ITEM('',(#407),#14);
#14=MANIFOLD_SOLID_BREP('Corps1',#223);
#15=CYLINDRICAL_SURFACE('',#243,1.75);
#16=CYLINDRICAL_SURFACE('',#246,1.75);
#17=CYLINDRICAL_SURFACE('',#254,2.);
#18=CYLINDRICAL_SURFACE('',#256,1.75);
#19=CYLINDRICAL_SURFACE('',#258,1.75);
#20=FACE_OUTER_BOUND('',#32,.T.);
#21=FACE_OUTER_BOUND('',#33,.T.);
#22=FACE_OUTER_BOUND('',#34,.T.);
#23=FACE_OUTER_BOUND('',#35,.T.);
#24=FACE_OUTER_BOUND('',#36,.T.);
#25=FACE_OUTER_BOUND('',#37,.T.);
#26=FACE_OUTER_BOUND('',#38,.T.);
#27=FACE_OUTER_BOUND('',#39,.T.);
#28=FACE_OUTER_BOUND('',#40,.T.);
#29=FACE_OUTER_BOUND('',#41,.T.);
#30=FACE_OUTER_BOUND('',#42,.T.);
#31=FACE_OUTER_BOUND('',#43,.T.);
#32=EDGE_LOOP('',(#144,#145,#146,#147));
#33=EDGE_LOOP('',(#148,#149,#150,#151));
#34=EDGE_LOOP('',(#152,#153,#154,#155));
#35=EDGE_LOOP('',(#156,#157,#158,#159));
#36=EDGE_LOOP('',(#160,#161,#162,#163));
#37=EDGE_LOOP('',(#164,#165,#166,#167,#168,#169));
#38=EDGE_LOOP('',(#170,#171,#172,#173,#174,#175));
#39=EDGE_LOOP('',(#176,#177,#178,#179));
#40=EDGE_LOOP('',(#180,#181,#182,#183,#184,#185,#186,#187,#188,#189,#190,
#191));
#41=EDGE_LOOP('',(#192,#193,#194,#195));
#42=EDGE_LOOP('',(#196,#197,#198,#199));
#43=EDGE_LOOP('',(#200,#201,#202,#203));
#44=CIRCLE('',#238,1.75);
#45=CIRCLE('',#239,1.75);
#46=CIRCLE('',#241,1.75);
#47=CIRCLE('',#242,1.75);
#48=CIRCLE('',#244,1.75);
#49=CIRCLE('',#247,1.75);
#50=CIRCLE('',#249,2.);
#51=CIRCLE('',#251,2.);
#52=CIRCLE('',#252,1.75);
#53=CIRCLE('',#253,1.75);
#54=LINE('',#329,#74);
#55=LINE('',#333,#75);
#56=LINE('',#340,#76);
#57=LINE('',#343,#77);
#58=LINE('',#346,#78);
#59=LINE('',#349,#79);
#60=LINE('',#352,#80);
#61=LINE('',#353,#81);
#62=LINE('',#356,#82);
#63=LINE('',#362,#83);
#64=LINE('',#363,#84);
#65=LINE('',#367,#85);
#66=LINE('',#371,#86);
#67=LINE('',#375,#87);
#68=LINE('',#378,#88);
#69=LINE('',#379,#89);
#70=LINE('',#381,#90);
#71=LINE('',#382,#91);
#72=LINE('',#384,#92);
#73=LINE('',#386,#93);
#74=VECTOR('',#263,10.);
#75=VECTOR('',#266,10.);
#76=VECTOR('',#273,10.);
#77=VECTOR('',#276,10.);
#78=VECTOR('',#279,10.);
#79=VECTOR('',#282,10.);
#80=VECTOR('',#285,10.);
#81=VECTOR('',#286,10.);
#82=VECTOR('',#289,10.);
#83=VECTOR('',#296,10.);
#84=VECTOR('',#297,10.);
#85=VECTOR('',#300,10.);
#86=VECTOR('',#303,10.);
#87=VECTOR('',#306,10.);
#88=VECTOR('',#311,10.);
#89=VECTOR('',#312,10.);
#90=VECTOR('',#315,10.);
#91=VECTOR('',#316,10.);
#92=VECTOR('',#319,10.);
#93=VECTOR('',#322,10.);
#94=VERTEX_POINT('',#327);
#95=VERTEX_POINT('',#328);
#96=VERTEX_POINT('',#330);
#97=VERTEX_POINT('',#332);
#98=VERTEX_POINT('',#336);
#99=VERTEX_POINT('',#337);
#100=VERTEX_POINT('',#339);
#101=VERTEX_POINT('',#341);
#102=VERTEX_POINT('',#345);
#103=VERTEX_POINT('',#347);
#104=VERTEX_POINT('',#351);
#105=VERTEX_POINT('',#355);
#106=VERTEX_POINT('',#359);
#107=VERTEX_POINT('',#360);
#108=VERTEX_POINT('',#365);
#109=VERTEX_POINT('',#366);
#110=VERTEX_POINT('',#368);
#111=VERTEX_POINT('',#370);
#112=VERTEX_POINT('',#372);
#113=VERTEX_POINT('',#374);
#114=EDGE_CURVE('',#94,#95,#54,.T.);
#115=EDGE_CURVE('',#95,#96,#44,.T.);
#116=EDGE_CURVE('',#96,#97,#55,.T.);
#117=EDGE_CURVE('',#97,#94,#45,.T.);
#118=EDGE_CURVE('',#98,#99,#46,.T.);
#119=EDGE_CURVE('',#99,#100,#56,.T.);
#120=EDGE_CURVE('',#100,#101,#47,.T.);
#121=EDGE_CURVE('',#101,#98,#57,.T.);
#122=EDGE_CURVE('',#100,#102,#58,.T.);
#123=EDGE_CURVE('',#102,#103,#48,.T.);
#124=EDGE_CURVE('',#101,#103,#59,.T.);
#125=EDGE_CURVE('',#99,#104,#60,.T.);
#126=EDGE_CURVE('',#104,#102,#61,.T.);
#127=EDGE_CURVE('',#105,#98,#62,.T.);
#128=EDGE_CURVE('',#105,#104,#49,.T.);
#129=EDGE_CURVE('',#106,#107,#50,.T.);
#130=EDGE_CURVE('',#103,#106,#63,.T.);
#131=EDGE_CURVE('',#107,#105,#64,.T.);
#132=EDGE_CURVE('',#108,#109,#65,.T.);
#133=EDGE_CURVE('',#110,#109,#51,.T.);
#134=EDGE_CURVE('',#110,#111,#66,.T.);
#135=EDGE_CURVE('',#112,#111,#52,.T.);
#136=EDGE_CURVE('',#113,#112,#67,.T.);
#137=EDGE_CURVE('',#108,#113,#53,.T.);
#138=EDGE_CURVE('',#107,#110,#68,.T.);
#139=EDGE_CURVE('',#109,#106,#69,.T.);
#140=EDGE_CURVE('',#108,#95,#70,.T.);
#141=EDGE_CURVE('',#94,#111,#71,.T.);
#142=EDGE_CURVE('',#97,#112,#72,.T.);
#143=EDGE_CURVE('',#96,#113,#73,.T.);
#144=ORIENTED_EDGE('',*,*,#114,.T.);
#145=ORIENTED_EDGE('',*,*,#115,.T.);
#146=ORIENTED_EDGE('',*,*,#116,.T.);
#147=ORIENTED_EDGE('',*,*,#117,.T.);
#148=ORIENTED_EDGE('',*,*,#118,.T.);
#149=ORIENTED_EDGE('',*,*,#119,.T.);
#150=ORIENTED_EDGE('',*,*,#120,.T.);
#151=ORIENTED_EDGE('',*,*,#121,.T.);
#152=ORIENTED_EDGE('',*,*,#122,.T.);
#153=ORIENTED_EDGE('',*,*,#123,.T.);
#154=ORIENTED_EDGE('',*,*,#124,.F.);
#155=ORIENTED_EDGE('',*,*,#120,.F.);
#156=ORIENTED_EDGE('',*,*,#125,.T.);
#157=ORIENTED_EDGE('',*,*,#126,.T.);
#158=ORIENTED_EDGE('',*,*,#122,.F.);
#159=ORIENTED_EDGE('',*,*,#119,.F.);
#160=ORIENTED_EDGE('',*,*,#127,.F.);
#161=ORIENTED_EDGE('',*,*,#128,.T.);
#162=ORIENTED_EDGE('',*,*,#125,.F.);
#163=ORIENTED_EDGE('',*,*,#118,.F.);
#164=ORIENTED_EDGE('',*,*,#129,.F.);
#165=ORIENTED_EDGE('',*,*,#130,.F.);
#166=ORIENTED_EDGE('',*,*,#123,.F.);
#167=ORIENTED_EDGE('',*,*,#126,.F.);
#168=ORIENTED_EDGE('',*,*,#128,.F.);
#169=ORIENTED_EDGE('',*,*,#131,.F.);
#170=ORIENTED_EDGE('',*,*,#132,.T.);
#171=ORIENTED_EDGE('',*,*,#133,.F.);
#172=ORIENTED_EDGE('',*,*,#134,.T.);
#173=ORIENTED_EDGE('',*,*,#135,.F.);
#174=ORIENTED_EDGE('',*,*,#136,.F.);
#175=ORIENTED_EDGE('',*,*,#137,.F.);
#176=ORIENTED_EDGE('',*,*,#129,.T.);
#177=ORIENTED_EDGE('',*,*,#138,.T.);
#178=ORIENTED_EDGE('',*,*,#133,.T.);
#179=ORIENTED_EDGE('',*,*,#139,.T.);
#180=ORIENTED_EDGE('',*,*,#127,.T.);
#181=ORIENTED_EDGE('',*,*,#121,.F.);
#182=ORIENTED_EDGE('',*,*,#124,.T.);
#183=ORIENTED_EDGE('',*,*,#130,.T.);
#184=ORIENTED_EDGE('',*,*,#139,.F.);
#185=ORIENTED_EDGE('',*,*,#132,.F.);
#186=ORIENTED_EDGE('',*,*,#140,.T.);
#187=ORIENTED_EDGE('',*,*,#114,.F.);
#188=ORIENTED_EDGE('',*,*,#141,.T.);
#189=ORIENTED_EDGE('',*,*,#134,.F.);
#190=ORIENTED_EDGE('',*,*,#138,.F.);
#191=ORIENTED_EDGE('',*,*,#131,.T.);
#192=ORIENTED_EDGE('',*,*,#142,.T.);
#193=ORIENTED_EDGE('',*,*,#135,.T.);
#194=ORIENTED_EDGE('',*,*,#141,.F.);
#195=ORIENTED_EDGE('',*,*,#117,.F.);
#196=ORIENTED_EDGE('',*,*,#143,.T.);
#197=ORIENTED_EDGE('',*,*,#136,.T.);
#198=ORIENTED_EDGE('',*,*,#142,.F.);
#199=ORIENTED_EDGE('',*,*,#116,.F.);
#200=ORIENTED_EDGE('',*,*,#140,.F.);
#201=ORIENTED_EDGE('',*,*,#137,.T.);
#202=ORIENTED_EDGE('',*,*,#143,.F.);
#203=ORIENTED_EDGE('',*,*,#115,.F.);
#204=PLANE('',#237);
#205=PLANE('',#240);
#206=PLANE('',#245);
#207=PLANE('',#248);
#208=PLANE('',#250);
#209=PLANE('',#255);
#210=PLANE('',#257);
#211=ADVANCED_FACE('',(#20),#204,.T.);
#212=ADVANCED_FACE('',(#21),#205,.F.);
#213=ADVANCED_FACE('',(#22),#15,.T.);
#214=ADVANCED_FACE('',(#23),#206,.F.);
#215=ADVANCED_FACE('',(#24),#16,.T.);
#216=ADVANCED_FACE('',(#25),#207,.T.);
#217=ADVANCED_FACE('',(#26),#208,.T.);
#218=ADVANCED_FACE('',(#27),#17,.T.);
#219=ADVANCED_FACE('',(#28),#209,.F.);
#220=ADVANCED_FACE('',(#29),#18,.T.);
#221=ADVANCED_FACE('',(#30),#210,.F.);
#222=ADVANCED_FACE('',(#31),#19,.T.);
#223=CLOSED_SHELL('',(#211,#212,#213,#214,#215,#216,#217,#218,#219,#220,
#221,#222));
#224=DERIVED_UNIT_ELEMENT(#226,1.);
#225=DERIVED_UNIT_ELEMENT(#393,-3.);
#226=(
MASS_UNIT()
NAMED_UNIT(*)
SI_UNIT(.KILO.,.GRAM.)
);
#227=DERIVED_UNIT((#224,#225));
#228=MEASURE_REPRESENTATION_ITEM('density measure',
POSITIVE_RATIO_MEASURE(7850.),#227);
#229=PROPERTY_DEFINITION_REPRESENTATION(#234,#231);
#230=PROPERTY_DEFINITION_REPRESENTATION(#235,#232);
#231=REPRESENTATION('material name',(#233),#390);
#232=REPRESENTATION('density',(#228),#390);
#233=DESCRIPTIVE_REPRESENTATION_ITEM('Acier','Acier');
#234=PROPERTY_DEFINITION('material property','material name',#400);
#235=PROPERTY_DEFINITION('material property','density of part',#400);
#236=AXIS2_PLACEMENT_3D('',#325,#259,#260);
#237=AXIS2_PLACEMENT_3D('',#326,#261,#262);
#238=AXIS2_PLACEMENT_3D('',#331,#264,#265);
#239=AXIS2_PLACEMENT_3D('',#334,#267,#268);
#240=AXIS2_PLACEMENT_3D('',#335,#269,#270);
#241=AXIS2_PLACEMENT_3D('',#338,#271,#272);
#242=AXIS2_PLACEMENT_3D('',#342,#274,#275);
#243=AXIS2_PLACEMENT_3D('',#344,#277,#278);
#244=AXIS2_PLACEMENT_3D('',#348,#280,#281);
#245=AXIS2_PLACEMENT_3D('',#350,#283,#284);
#246=AXIS2_PLACEMENT_3D('',#354,#287,#288);
#247=AXIS2_PLACEMENT_3D('',#357,#290,#291);
#248=AXIS2_PLACEMENT_3D('',#358,#292,#293);
#249=AXIS2_PLACEMENT_3D('',#361,#294,#295);
#250=AXIS2_PLACEMENT_3D('',#364,#298,#299);
#251=AXIS2_PLACEMENT_3D('',#369,#301,#302);
#252=AXIS2_PLACEMENT_3D('',#373,#304,#305);
#253=AXIS2_PLACEMENT_3D('',#376,#307,#308);
#254=AXIS2_PLACEMENT_3D('',#377,#309,#310);
#255=AXIS2_PLACEMENT_3D('',#380,#313,#314);
#256=AXIS2_PLACEMENT_3D('',#383,#317,#318);
#257=AXIS2_PLACEMENT_3D('',#385,#320,#321);
#258=AXIS2_PLACEMENT_3D('',#387,#323,#324);
#259=DIRECTION('axis',(0.,0.,1.));
#260=DIRECTION('refdir',(1.,0.,0.));
#261=DIRECTION('center_axis',(0.,1.,0.));
#262=DIRECTION('ref_axis',(-1.,0.,0.));
#263=DIRECTION('',(0.,0.,-1.));
#264=DIRECTION('center_axis',(0.,1.,0.));
#265=DIRECTION('ref_axis',(0.,0.,-1.));
#266=DIRECTION('',(0.,0.,1.));
#267=DIRECTION('center_axis',(0.,1.,0.));
#268=DIRECTION('ref_axis',(-0.57142857142857,0.,0.820651806648291));
#269=DIRECTION('center_axis',(0.,1.,0.));
#270=DIRECTION('ref_axis',(-1.,0.,0.));
#271=DIRECTION('center_axis',(0.,-1.,0.));
#272=DIRECTION('ref_axis',(0.571428571428568,0.,0.820651806648292));
#273=DIRECTION('',(0.,0.,-1.));
#274=DIRECTION('center_axis',(0.,-1.,0.));
#275=DIRECTION('ref_axis',(-0.571428571428568,0.,-0.820651806648292));
#276=DIRECTION('',(0.,0.,1.));
#277=DIRECTION('center_axis',(0.,1.,0.));
#278=DIRECTION('ref_axis',(-0.571428571428568,0.,-0.820651806648292));
#279=DIRECTION('',(0.,1.,0.));
#280=DIRECTION('center_axis',(0.,-1.,0.));
#281=DIRECTION('ref_axis',(-0.571428571428568,0.,-0.820651806648292));
#282=DIRECTION('',(0.,1.,0.));
#283=DIRECTION('center_axis',(1.,0.,0.));
#284=DIRECTION('ref_axis',(0.,0.,-1.));
#285=DIRECTION('',(0.,1.,0.));
#286=DIRECTION('',(0.,0.,-1.));
#287=DIRECTION('center_axis',(0.,1.,0.));
#288=DIRECTION('ref_axis',(0.571428571428568,0.,0.820651806648292));
#289=DIRECTION('',(0.,-1.,0.));
#290=DIRECTION('center_axis',(0.,-1.,0.));
#291=DIRECTION('ref_axis',(0.571428571428568,0.,0.820651806648292));
#292=DIRECTION('center_axis',(0.,-1.,0.));
#293=DIRECTION('ref_axis',(1.,0.,0.));
#294=DIRECTION('center_axis',(0.,1.,0.));
#295=DIRECTION('ref_axis',(-1.,0.,0.));
#296=DIRECTION('',(0.,0.,-1.));
#297=DIRECTION('',(0.,0.,-1.));
#298=DIRECTION('center_axis',(0.,1.,0.));
#299=DIRECTION('ref_axis',(-1.,0.,0.));
#300=DIRECTION('',(0.,0.,-1.));
#301=DIRECTION('center_axis',(0.,-1.,0.));
#302=DIRECTION('ref_axis',(-1.,0.,0.));
#303=DIRECTION('',(0.,0.,-1.));
#304=DIRECTION('center_axis',(0.,1.,0.));
#305=DIRECTION('ref_axis',(-0.57142857142857,0.,0.820651806648291));
#306=DIRECTION('',(0.,0.,1.));
#307=DIRECTION('center_axis',(0.,1.,0.));
#308=DIRECTION('ref_axis',(0.,0.,-1.));
#309=DIRECTION('center_axis',(0.,1.,0.));
#310=DIRECTION('ref_axis',(-1.,0.,0.));
#311=DIRECTION('',(0.,1.,0.));
#312=DIRECTION('',(0.,-1.,0.));
#313=DIRECTION('center_axis',(-1.,0.,0.));
#314=DIRECTION('ref_axis',(0.,0.,-1.));
#315=DIRECTION('',(0.,1.,0.));
#316=DIRECTION('',(0.,-1.,0.));
#317=DIRECTION('center_axis',(0.,-1.,0.));
#318=DIRECTION('ref_axis',(-0.57142857142857,0.,0.820651806648291));
#319=DIRECTION('',(0.,-1.,0.));
#320=DIRECTION('center_axis',(1.,0.,0.));
#321=DIRECTION('ref_axis',(0.,0.,1.));
#322=DIRECTION('',(0.,-1.,0.));
#323=DIRECTION('center_axis',(0.,-1.,0.));
#324=DIRECTION('ref_axis',(0.,0.,-1.));
#325=CARTESIAN_POINT('',(0.,0.,0.));
#326=CARTESIAN_POINT('Origin',(9.75000000000001,15.5,0.));
#327=CARTESIAN_POINT('',(10.75,15.5,1.43614066163451));
#328=CARTESIAN_POINT('',(10.75,15.5,-1.43614066163451));
#329=CARTESIAN_POINT('',(10.75,15.5,0.718070330817254));
#330=CARTESIAN_POINT('',(8.75000000000001,15.5,-1.43614066163451));
#331=CARTESIAN_POINT('Origin',(9.75000000000001,15.5,0.));
#332=CARTESIAN_POINT('',(8.75000000000001,15.5,1.43614066163451));
#333=CARTESIAN_POINT('',(8.75000000000001,15.5,-0.718070330817254));
#334=CARTESIAN_POINT('Origin',(9.75000000000001,15.5,0.));
#335=CARTESIAN_POINT('Origin',(9.75000000000001,-29.5,0.));
#336=CARTESIAN_POINT('',(10.75,-29.5,1.43614066163452));
#337=CARTESIAN_POINT('',(8.75000000000001,-29.5,1.43614066163452));
#338=CARTESIAN_POINT('Origin',(9.75000000000001,-29.5,6.66133814775094E-15));
#339=CARTESIAN_POINT('',(8.75000000000001,-29.5,-1.43614066163451));
#340=CARTESIAN_POINT('',(8.75000000000001,-29.5,0.718070330817254));
#341=CARTESIAN_POINT('',(10.75,-29.5,-1.43614066163451));
#342=CARTESIAN_POINT('Origin',(9.75000000000001,-29.5,6.66133814775094E-15));
#343=CARTESIAN_POINT('',(10.75,-29.5,0.866025403784441));
#344=CARTESIAN_POINT('Origin',(9.75000000000001,-29.,6.66133814775094E-15));
#345=CARTESIAN_POINT('',(8.75000000000001,-18.,-1.43614066163451));
#346=CARTESIAN_POINT('',(8.75000000000001,-29.,-1.43614066163451));
#347=CARTESIAN_POINT('',(10.75,-18.,-1.43614066163451));
#348=CARTESIAN_POINT('Origin',(9.75000000000001,-18.,6.66133814775094E-15));
#349=CARTESIAN_POINT('',(10.75,-29.,-1.43614066163451));
#350=CARTESIAN_POINT('Origin',(8.75000000000001,-29.,1.43614066163451));
#351=CARTESIAN_POINT('',(8.75000000000001,-18.,1.43614066163452));
#352=CARTESIAN_POINT('',(8.75000000000001,-29.,1.43614066163452));
#353=CARTESIAN_POINT('',(8.75000000000001,-18.,-1.43614066163451));
#354=CARTESIAN_POINT('Origin',(9.75000000000001,-29.,6.66133814775094E-15));
#355=CARTESIAN_POINT('',(10.75,-18.,1.43614066163452));
#356=CARTESIAN_POINT('',(10.75,-29.,1.43614066163452));
#357=CARTESIAN_POINT('Origin',(9.75000000000001,-18.,6.66133814775094E-15));
#358=CARTESIAN_POINT('Origin',(9.25000000000001,-18.,6.66133814775094E-15));
#359=CARTESIAN_POINT('',(10.75,-18.,-1.73205080756887));
#360=CARTESIAN_POINT('',(10.75,-18.,1.73205080756888));
#361=CARTESIAN_POINT('Origin',(9.75000000000001,-18.,0.));
#362=CARTESIAN_POINT('',(10.75,-18.,0.718070330817257));
#363=CARTESIAN_POINT('',(10.75,-18.,0.718070330817257));
#364=CARTESIAN_POINT('Origin',(9.75000000000001,4.,0.));
#365=CARTESIAN_POINT('',(10.75,4.,-1.43614066163451));
#366=CARTESIAN_POINT('',(10.75,4.,-1.73205080756888));
#367=CARTESIAN_POINT('',(10.75,4.,0.866025403784441));
#368=CARTESIAN_POINT('',(10.75,4.,1.73205080756888));
#369=CARTESIAN_POINT('Origin',(9.75000000000001,4.,0.));
#370=CARTESIAN_POINT('',(10.75,4.,1.43614066163451));
#371=CARTESIAN_POINT('',(10.75,4.,0.866025403784441));
#372=CARTESIAN_POINT('',(8.75000000000001,4.,1.43614066163451));
#373=CARTESIAN_POINT('Origin',(9.75000000000001,4.,0.));
#374=CARTESIAN_POINT('',(8.75000000000001,4.,-1.43614066163451));
#375=CARTESIAN_POINT('',(8.75000000000001,4.,-1.43614066163451));
#376=CARTESIAN_POINT('Origin',(9.75000000000001,4.,0.));
#377=CARTESIAN_POINT('Origin',(9.75000000000001,-29.,0.));
#378=CARTESIAN_POINT('',(10.75,-29.,1.73205080756888));
#379=CARTESIAN_POINT('',(10.75,-29.,-1.73205080756888));
#380=CARTESIAN_POINT('Origin',(10.75,15.,1.43614066163451));
#381=CARTESIAN_POINT('',(10.75,15.,-1.43614066163451));
#382=CARTESIAN_POINT('',(10.75,15.,1.43614066163451));
#383=CARTESIAN_POINT('Origin',(9.75000000000001,15.,0.));
#384=CARTESIAN_POINT('',(8.75000000000001,15.,1.43614066163451));
#385=CARTESIAN_POINT('Origin',(8.75000000000001,15.,-1.43614066163451));
#386=CARTESIAN_POINT('',(8.75000000000001,15.,-1.43614066163451));
#387=CARTESIAN_POINT('Origin',(9.75000000000001,15.,0.));
#388=UNCERTAINTY_MEASURE_WITH_UNIT(LENGTH_MEASURE(0.01),#392,
'DISTANCE_ACCURACY_VALUE',
'Maximum model space distance between geometric entities at asserted c
onnectivities');
#389=UNCERTAINTY_MEASURE_WITH_UNIT(LENGTH_MEASURE(0.01),#392,
'DISTANCE_ACCURACY_VALUE',
'Maximum model space distance between geometric entities at asserted c
onnectivities');
#390=(
GEOMETRIC_REPRESENTATION_CONTEXT(3)
GLOBAL_UNCERTAINTY_ASSIGNED_CONTEXT((#388))
GLOBAL_UNIT_ASSIGNED_CONTEXT((#392,#394,#395))
REPRESENTATION_CONTEXT('','3D')
);
#391=(
GEOMETRIC_REPRESENTATION_CONTEXT(3)
GLOBAL_UNCERTAINTY_ASSIGNED_CONTEXT((#389))
GLOBAL_UNIT_ASSIGNED_CONTEXT((#392,#394,#395))
REPRESENTATION_CONTEXT('','3D')
);
#392=(
LENGTH_UNIT()
NAMED_UNIT(*)
SI_UNIT(.MILLI.,.METRE.)
);
#393=(
LENGTH_UNIT()
NAMED_UNIT(*)
SI_UNIT($,.METRE.)
);
#394=(
NAMED_UNIT(*)
PLANE_ANGLE_UNIT()
SI_UNIT($,.RADIAN.)
);
#395=(
NAMED_UNIT(*)
SI_UNIT($,.STERADIAN.)
SOLID_ANGLE_UNIT()
);
#396=SHAPE_DEFINITION_REPRESENTATION(#397,#398);
#397=PRODUCT_DEFINITION_SHAPE('',$,#400);
#398=SHAPE_REPRESENTATION('',(#236),#390);
#399=PRODUCT_DEFINITION_CONTEXT('part definition',#404,'design');
#400=PRODUCT_DEFINITION('FusionComponent','FusionComponent',#401,#399);
#401=PRODUCT_DEFINITION_FORMATION('',$,#406);
#402=PRODUCT_RELATED_PRODUCT_CATEGORY('FusionComponent',
'FusionComponent',(#406));
#403=APPLICATION_PROTOCOL_DEFINITION('international standard',
'automotive_design',2009,#404);
#404=APPLICATION_CONTEXT(
'Core Data for Automotive Mechanical Design Process');
#405=PRODUCT_CONTEXT('part definition',#404,'mechanical');
#406=PRODUCT('FusionComponent','FusionComponent',$,(#405));
#407=PRESENTATION_STYLE_ASSIGNMENT((#408));
#408=SURFACE_STYLE_USAGE(.BOTH.,#409);
#409=SURFACE_SIDE_STYLE('',(#410));
#410=SURFACE_STYLE_FILL_AREA(#411);
#411=FILL_AREA_STYLE('Acier - Satin\X\E9',(#412));
#412=FILL_AREA_STYLE_COLOUR('Acier - Satin\X\E9',#413);
#413=COLOUR_RGB('Acier - Satin\X\E9',0.627450980392157,0.627450980392157,
0.627450980392157);
ENDSEC;
END-ISO-10303-21;
