ISO-10303-21;
HEADER;
/* Generated by software containing ST-Developer
 * from STEP Tools, Inc. (www.steptools.com) 
 */

FILE_DESCRIPTION(
/* description */ (''),
/* implementation_level */ '2;1');

FILE_NAME(
/* name */ 'Bride.step',
/* time_stamp */ '2023-12-23T15:14:59+01:00',
/* author */ (''),
/* organization */ (''),
/* preprocessor_version */ 'ST-DEVELOPER v20',
/* originating_system */ 'Autodesk Translation Framework v12.14.0.127',

/* authorisation */ '');

FILE_SCHEMA (('AUTOMOTIVE_DESIGN { 1 0 10303 214 3 1 1 }'));
ENDSEC;

DATA;
#10=MECHANICAL_DESIGN_GEOMETRIC_PRESENTATION_REPRESENTATION('',(#13),#185);
#11=SHAPE_REPRESENTATION_RELATIONSHIP('SRR','None',#192,#12);
#12=ADVANCED_BREP_SHAPE_REPRESENTATION('',(#14),#184);
#13=STYLED_ITEM('',(#201),#14);
#14=MANIFOLD_SOLID_BREP('Corps1',#105);
#15=CYLINDRICAL_SURFACE('',#122,2.5);
#16=FACE_OUTER_BOUND('',#22,.T.);
#17=FACE_OUTER_BOUND('',#23,.T.);
#18=FACE_OUTER_BOUND('',#24,.T.);
#19=FACE_OUTER_BOUND('',#25,.T.);
#20=FACE_OUTER_BOUND('',#26,.T.);
#21=FACE_OUTER_BOUND('',#27,.T.);
#22=EDGE_LOOP('',(#70,#71,#72,#73));
#23=EDGE_LOOP('',(#74,#75,#76,#77));
#24=EDGE_LOOP('',(#78,#79,#80,#81));
#25=EDGE_LOOP('',(#82,#83,#84,#85));
#26=EDGE_LOOP('',(#86,#87,#88,#89));
#27=EDGE_LOOP('',(#90,#91,#92,#93));
#28=CIRCLE('',#120,2.5);
#29=CIRCLE('',#123,2.5);
#30=LINE('',#159,#40);
#31=LINE('',#161,#41);
#32=LINE('',#164,#42);
#33=LINE('',#167,#43);
#34=LINE('',#169,#44);
#35=LINE('',#170,#45);
#36=LINE('',#174,#46);
#37=LINE('',#177,#47);
#38=LINE('',#178,#48);
#39=LINE('',#180,#49);
#40=VECTOR('',#131,10.);
#41=VECTOR('',#132,10.);
#42=VECTOR('',#135,10.);
#43=VECTOR('',#138,10.);
#44=VECTOR('',#139,10.);
#45=VECTOR('',#140,10.);
#46=VECTOR('',#145,10.);
#47=VECTOR('',#148,10.);
#48=VECTOR('',#149,10.);
#49=VECTOR('',#152,10.);
#50=VERTEX_POINT('',#157);
#51=VERTEX_POINT('',#158);
#52=VERTEX_POINT('',#160);
#53=VERTEX_POINT('',#162);
#54=VERTEX_POINT('',#166);
#55=VERTEX_POINT('',#168);
#56=VERTEX_POINT('',#172);
#57=VERTEX_POINT('',#176);
#58=EDGE_CURVE('',#50,#51,#30,.T.);
#59=EDGE_CURVE('',#51,#52,#31,.T.);
#60=EDGE_CURVE('',#52,#53,#28,.T.);
#61=EDGE_CURVE('',#53,#50,#32,.T.);
#62=EDGE_CURVE('',#51,#54,#33,.T.);
#63=EDGE_CURVE('',#55,#54,#34,.T.);
#64=EDGE_CURVE('',#52,#55,#35,.T.);
#65=EDGE_CURVE('',#56,#55,#29,.T.);
#66=EDGE_CURVE('',#53,#56,#36,.T.);
#67=EDGE_CURVE('',#57,#56,#37,.T.);
#68=EDGE_CURVE('',#50,#57,#38,.T.);
#69=EDGE_CURVE('',#54,#57,#39,.T.);
#70=ORIENTED_EDGE('',*,*,#58,.T.);
#71=ORIENTED_EDGE('',*,*,#59,.T.);
#72=ORIENTED_EDGE('',*,*,#60,.T.);
#73=ORIENTED_EDGE('',*,*,#61,.T.);
#74=ORIENTED_EDGE('',*,*,#62,.T.);
#75=ORIENTED_EDGE('',*,*,#63,.F.);
#76=ORIENTED_EDGE('',*,*,#64,.F.);
#77=ORIENTED_EDGE('',*,*,#59,.F.);
#78=ORIENTED_EDGE('',*,*,#64,.T.);
#79=ORIENTED_EDGE('',*,*,#65,.F.);
#80=ORIENTED_EDGE('',*,*,#66,.F.);
#81=ORIENTED_EDGE('',*,*,#60,.F.);
#82=ORIENTED_EDGE('',*,*,#66,.T.);
#83=ORIENTED_EDGE('',*,*,#67,.F.);
#84=ORIENTED_EDGE('',*,*,#68,.F.);
#85=ORIENTED_EDGE('',*,*,#61,.F.);
#86=ORIENTED_EDGE('',*,*,#68,.T.);
#87=ORIENTED_EDGE('',*,*,#69,.F.);
#88=ORIENTED_EDGE('',*,*,#62,.F.);
#89=ORIENTED_EDGE('',*,*,#58,.F.);
#90=ORIENTED_EDGE('',*,*,#69,.T.);
#91=ORIENTED_EDGE('',*,*,#67,.T.);
#92=ORIENTED_EDGE('',*,*,#65,.T.);
#93=ORIENTED_EDGE('',*,*,#63,.T.);
#94=PLANE('',#119);
#95=PLANE('',#121);
#96=PLANE('',#124);
#97=PLANE('',#125);
#98=PLANE('',#126);
#99=ADVANCED_FACE('',(#16),#94,.F.);
#100=ADVANCED_FACE('',(#17),#95,.T.);
#101=ADVANCED_FACE('',(#18),#15,.T.);
#102=ADVANCED_FACE('',(#19),#96,.T.);
#103=ADVANCED_FACE('',(#20),#97,.T.);
#104=ADVANCED_FACE('',(#21),#98,.T.);
#105=CLOSED_SHELL('',(#99,#100,#101,#102,#103,#104));
#106=DERIVED_UNIT_ELEMENT(#108,1.);
#107=DERIVED_UNIT_ELEMENT(#187,-3.);
#108=(
MASS_UNIT()
NAMED_UNIT(*)
SI_UNIT(.KILO.,.GRAM.)
);
#109=DERIVED_UNIT((#106,#107));
#110=MEASURE_REPRESENTATION_ITEM('density measure',
POSITIVE_RATIO_MEASURE(7850.),#109);
#111=PROPERTY_DEFINITION_REPRESENTATION(#116,#113);
#112=PROPERTY_DEFINITION_REPRESENTATION(#117,#114);
#113=REPRESENTATION('material name',(#115),#184);
#114=REPRESENTATION('density',(#110),#184);
#115=DESCRIPTIVE_REPRESENTATION_ITEM('Acier','Acier');
#116=PROPERTY_DEFINITION('material property','material name',#194);
#117=PROPERTY_DEFINITION('material property','density of part',#194);
#118=AXIS2_PLACEMENT_3D('',#155,#127,#128);
#119=AXIS2_PLACEMENT_3D('',#156,#129,#130);
#120=AXIS2_PLACEMENT_3D('',#163,#133,#134);
#121=AXIS2_PLACEMENT_3D('',#165,#136,#137);
#122=AXIS2_PLACEMENT_3D('',#171,#141,#142);
#123=AXIS2_PLACEMENT_3D('',#173,#143,#144);
#124=AXIS2_PLACEMENT_3D('',#175,#146,#147);
#125=AXIS2_PLACEMENT_3D('',#179,#150,#151);
#126=AXIS2_PLACEMENT_3D('',#181,#153,#154);
#127=DIRECTION('axis',(0.,0.,1.));
#128=DIRECTION('refdir',(1.,0.,0.));
#129=DIRECTION('center_axis',(1.,0.,0.));
#130=DIRECTION('ref_axis',(0.,0.,-1.));
#131=DIRECTION('',(0.,0.,1.));
#132=DIRECTION('',(0.,-1.,0.));
#133=DIRECTION('center_axis',(-1.,0.,0.));
#134=DIRECTION('ref_axis',(0.,0.,-1.));
#135=DIRECTION('',(0.,1.,0.));
#136=DIRECTION('center_axis',(0.,0.,-1.));
#137=DIRECTION('ref_axis',(0.,1.,0.));
#138=DIRECTION('',(1.,0.,0.));
#139=DIRECTION('',(0.,1.,0.));
#140=DIRECTION('',(1.,0.,0.));
#141=DIRECTION('center_axis',(1.,0.,0.));
#142=DIRECTION('ref_axis',(0.,1.,1.83697019872103E-16));
#143=DIRECTION('center_axis',(1.,0.,0.));
#144=DIRECTION('ref_axis',(0.,0.,-1.));
#145=DIRECTION('',(1.,0.,0.));
#146=DIRECTION('center_axis',(0.,0.,1.));
#147=DIRECTION('ref_axis',(0.,-1.,0.));
#148=DIRECTION('',(0.,-1.,0.));
#149=DIRECTION('',(1.,0.,0.));
#150=DIRECTION('center_axis',(0.,-1.,0.));
#151=DIRECTION('ref_axis',(0.,0.,-1.));
#152=DIRECTION('',(0.,0.,-1.));
#153=DIRECTION('center_axis',(1.,0.,0.));
#154=DIRECTION('ref_axis',(0.,0.,-1.));
#155=CARTESIAN_POINT('',(0.,0.,0.));
#156=CARTESIAN_POINT('Origin',(-0.55,27.5505023934786,0.560191020407448));
#157=CARTESIAN_POINT('',(-0.55,27.5139685034298,-0.0398089795925521));
#158=CARTESIAN_POINT('',(-0.55,27.5139685034298,1.16019102040745));
#159=CARTESIAN_POINT('',(-0.55,27.5139685034298,0.560191020407448));
#160=CARTESIAN_POINT('',(-0.55,25.0870362835274,1.16019102040745));
#161=CARTESIAN_POINT('',(-0.55,27.5139685034298,1.16019102040745));
#162=CARTESIAN_POINT('',(-0.55,25.0870362835274,-0.0398089795925521));
#163=CARTESIAN_POINT('Origin',(-0.55,27.5139685034298,0.560191020407448));
#164=CARTESIAN_POINT('',(-0.55,27.5139685034298,-0.0398089795925521));
#165=CARTESIAN_POINT('Origin',(0.,25.0870362835274,1.16019102040745));
#166=CARTESIAN_POINT('',(0.55,27.5139685034298,1.16019102040745));
#167=CARTESIAN_POINT('',(0.,27.5139685034298,1.16019102040745));
#168=CARTESIAN_POINT('',(0.55,25.0870362835274,1.16019102040745));
#169=CARTESIAN_POINT('',(0.55,27.5139685034298,1.16019102040745));
#170=CARTESIAN_POINT('',(0.,25.0870362835274,1.16019102040745));
#171=CARTESIAN_POINT('Origin',(0.,27.5139685034298,0.560191020407448));
#172=CARTESIAN_POINT('',(0.55,25.0870362835274,-0.0398089795925521));
#173=CARTESIAN_POINT('Origin',(0.55,27.5139685034298,0.560191020407448));
#174=CARTESIAN_POINT('',(0.,25.0870362835274,-0.0398089795925521));
#175=CARTESIAN_POINT('Origin',(0.,27.5139685034298,-0.0398089795925521));
#176=CARTESIAN_POINT('',(0.55,27.5139685034298,-0.0398089795925521));
#177=CARTESIAN_POINT('',(0.55,27.5139685034298,-0.0398089795925521));
#178=CARTESIAN_POINT('',(0.,27.5139685034298,-0.0398089795925521));
#179=CARTESIAN_POINT('Origin',(0.,27.5139685034298,1.16019102040745));
#180=CARTESIAN_POINT('',(0.55,27.5139685034298,0.560191020407448));
#181=CARTESIAN_POINT('Origin',(0.55,27.5505023934786,0.560191020407448));
#182=UNCERTAINTY_MEASURE_WITH_UNIT(LENGTH_MEASURE(0.01),#186,
'DISTANCE_ACCURACY_VALUE',
'Maximum model space distance between geometric entities at asserted c
onnectivities');
#183=UNCERTAINTY_MEASURE_WITH_UNIT(LENGTH_MEASURE(0.01),#186,
'DISTANCE_ACCURACY_VALUE',
'Maximum model space distance between geometric entities at asserted c
onnectivities');
#184=(
GEOMETRIC_REPRESENTATION_CONTEXT(3)
GLOBAL_UNCERTAINTY_ASSIGNED_CONTEXT((#182))
GLOBAL_UNIT_ASSIGNED_CONTEXT((#186,#188,#189))
REPRESENTATION_CONTEXT('','3D')
);
#185=(
GEOMETRIC_REPRESENTATION_CONTEXT(3)
GLOBAL_UNCERTAINTY_ASSIGNED_CONTEXT((#183))
GLOBAL_UNIT_ASSIGNED_CONTEXT((#186,#188,#189))
REPRESENTATION_CONTEXT('','3D')
);
#186=(
LENGTH_UNIT()
NAMED_UNIT(*)
SI_UNIT(.MILLI.,.METRE.)
);
#187=(
LENGTH_UNIT()
NAMED_UNIT(*)
SI_UNIT($,.METRE.)
);
#188=(
NAMED_UNIT(*)
PLANE_ANGLE_UNIT()
SI_UNIT($,.RADIAN.)
);
#189=(
NAMED_UNIT(*)
SI_UNIT($,.STERADIAN.)
SOLID_ANGLE_UNIT()
);
#190=SHAPE_DEFINITION_REPRESENTATION(#191,#192);
#191=PRODUCT_DEFINITION_SHAPE('',$,#194);
#192=SHAPE_REPRESENTATION('',(#118),#184);
#193=PRODUCT_DEFINITION_CONTEXT('part definition',#198,'design');
#194=PRODUCT_DEFINITION('Bride','Bride',#195,#193);
#195=PRODUCT_DEFINITION_FORMATION('',$,#200);
#196=PRODUCT_RELATED_PRODUCT_CATEGORY('Bride','Bride',(#200));
#197=APPLICATION_PROTOCOL_DEFINITION('international standard',
'automotive_design',2009,#198);
#198=APPLICATION_CONTEXT(
'Core Data for Automotive Mechanical Design Process');
#199=PRODUCT_CONTEXT('part definition',#198,'mechanical');
#200=PRODUCT('Bride','Bride',$,(#199));
#201=PRESENTATION_STYLE_ASSIGNMENT((#202));
#202=SURFACE_STYLE_USAGE(.BOTH.,#203);
#203=SURFACE_SIDE_STYLE('',(#204));
#204=SURFACE_STYLE_FILL_AREA(#205);
#205=FILL_AREA_STYLE('Acier - Satin\X\E9',(#206));
#206=FILL_AREA_STYLE_COLOUR('Acier - Satin\X\E9',#207);
#207=COLOUR_RGB('Acier - Satin\X\E9',0.627450980392157,0.627450980392157,
0.627450980392157);
ENDSEC;
END-ISO-10303-21;
