ISO-10303-21;
HEADER;
FILE_DESCRIPTION (( 'STEP AP203' ),
    '1' );
FILE_NAME ('Bague 12mm.STEP',
    '2024-01-16T21:08:26',
    ( '' ),
    ( '' ),
    'SwSTEP 2.0',
    'SolidWorks 2018',
    '' );
FILE_SCHEMA (( 'CONFIG_CONTROL_DESIGN' ));
ENDSEC;

DATA;
#1 = DIRECTION ( 'NONE',  ( -0.000000000000000000, -0.000000000000000000, -1.000000000000000000 ) ) ;
#2 = VERTEX_POINT ( 'NONE', #24 ) ;
#3 = CARTESIAN_POINT ( 'NONE',  ( 7.000000000000002665, 1.040949779275250337E-15, 5.000000000000000000 ) ) ;
#4 = DIRECTION ( 'NONE',  ( 0.000000000000000000, 0.000000000000000000, -1.000000000000000000 ) ) ;
#5 = UNCERTAINTY_MEASURE_WITH_UNIT (LENGTH_MEASURE( 1.000000000000000082E-05 ), #90, 'distance_accuracy_value', 'NONE');
#6 = AXIS2_PLACEMENT_3D ( 'NONE', #242, #205, #129 ) ;
#7 = PERSON_AND_ORGANIZATION ( #261, #287 ) ;
#8 = AXIS2_PLACEMENT_3D ( 'NONE', #220, #203, #36 ) ;
#9 = FACE_OUTER_BOUND ( 'NONE', #227, .T. ) ;
#10 = APPROVAL_STATUS ( 'not_yet_approved' ) ;
#11 = DATE_TIME_ROLE ( 'classification_date' ) ;
#12 =( NAMED_UNIT ( * ) PLANE_ANGLE_UNIT ( ) SI_UNIT ( $, .RADIAN. ) );
#13 = EDGE_LOOP ( 'NONE', ( #77, #65, #288, #84 ) ) ;
#14 = PERSON_AND_ORGANIZATION_ROLE ( 'design_supplier' ) ;
#15 = CYLINDRICAL_SURFACE ( 'NONE', #116, 6.000000000000000888 ) ;
#16 = AXIS2_PLACEMENT_3D ( 'NONE', #226, #183, #208 ) ;
#17 = LOCAL_TIME ( 22, 8, 26.00000000000000000, #85 ) ;
#18 = CC_DESIGN_PERSON_AND_ORGANIZATION_ASSIGNMENT ( #253, #112, ( #221 ) ) ;
#19 = FACE_OUTER_BOUND ( 'NONE', #21, .T. ) ;
#20 = DIRECTION ( 'NONE',  ( -0.000000000000000000, -0.000000000000000000, 1.000000000000000000 ) ) ;
#21 = EDGE_LOOP ( 'NONE', ( #278, #217, #199, #120 ) ) ;
#22 = ORIENTED_EDGE ( 'NONE', *, *, #161, .F. ) ;
#23 = CALENDAR_DATE ( 2024, 16, 1 ) ;
#24 = CARTESIAN_POINT ( 'NONE',  ( 10.00000000000000000, 1.224646799147353256E-15, 0.000000000000000000 ) ) ;
#25 = CC_DESIGN_DATE_AND_TIME_ASSIGNMENT ( #248, #11, ( #270 ) ) ;
#26 = AXIS2_PLACEMENT_3D ( 'NONE', #76, #280, #29 ) ;
#27 = CARTESIAN_POINT ( 'NONE',  ( -10.00000000000000000, 0.000000000000000000, 1.999999999999992228 ) ) ;
#28 = DIRECTION ( 'NONE',  ( 0.000000000000000000, 0.000000000000000000, 1.000000000000000000 ) ) ;
#29 = DIRECTION ( 'NONE',  ( 1.000000000000000000, 0.000000000000000000, -0.000000000000000000 ) ) ;
#30 = CONICAL_SURFACE ( 'NONE', #101, 7.000000000000002665, 0.7853981633974466137 ) ;
#31 = CARTESIAN_POINT ( 'NONE',  ( 0.000000000000000000, 0.000000000000000000, 0.000000000000000000 ) ) ;
#32 = DIRECTION ( 'NONE',  ( 0.000000000000000000, 0.000000000000000000, 1.000000000000000000 ) ) ;
#33 = VERTEX_POINT ( 'NONE', #27 ) ;
#34 = AXIS2_PLACEMENT_3D ( 'NONE', #276, #298, #173 ) ;
#35 = PERSON_AND_ORGANIZATION ( #261, #287 ) ;
#36 = DIRECTION ( 'NONE',  ( 1.000000000000000000, 0.000000000000000000, 0.000000000000000000 ) ) ;
#37 =( NAMED_UNIT ( * ) SI_UNIT ( $, .STERADIAN. ) SOLID_ANGLE_UNIT ( ) );
#38 = APPROVAL_STATUS ( 'not_yet_approved' ) ;
#39 = APPROVAL_ROLE ( '' ) ;
#40 = CC_DESIGN_PERSON_AND_ORGANIZATION_ASSIGNMENT ( #7, #211, ( #270 ) ) ;
#41 = VERTEX_POINT ( 'NONE', #98 ) ;
#42 = CIRCLE ( 'NONE', #43, 7.000000000000002665 ) ;
#43 = AXIS2_PLACEMENT_3D ( 'NONE', #102, #28, #277 ) ;
#44 = ADVANCED_FACE ( 'NONE', ( #19 ), #111, .T. ) ;
#45 = ORIENTED_EDGE ( 'NONE', *, *, #142, .F. ) ;
#46 = VECTOR ( 'NONE', #152, 1000.000000000000000 ) ;
#47 = EDGE_CURVE ( 'NONE', #144, #117, #56, .T. ) ;
#48 = DIRECTION ( 'NONE',  ( 1.000000000000000000, 0.000000000000000000, 0.000000000000000000 ) ) ;
#49 = APPROVAL_DATE_TIME ( #118, #254 ) ;
#50 = SHAPE_DEFINITION_REPRESENTATION ( #134, #68 ) ;
#51 = CARTESIAN_POINT ( 'NONE',  ( 7.000000000000002665, 8.572527594031475162E-16, 5.000000000000000000 ) ) ;
#52 = CC_DESIGN_DATE_AND_TIME_ASSIGNMENT ( #100, #284, ( #133 ) ) ;
#53 = ADVANCED_FACE ( 'NONE', ( #158 ), #294, .F. ) ;
#54 = DIRECTION ( 'NONE',  ( 0.000000000000000000, 0.000000000000000000, 1.000000000000000000 ) ) ;
#55 = CARTESIAN_POINT ( 'NONE',  ( 0.000000000000000000, 0.000000000000000000, 5.000000000000000000 ) ) ;
#56 = LINE ( 'NONE', #295, #218 ) ;
#57 = CARTESIAN_POINT ( 'NONE',  ( 6.000000000000000888, 0.000000000000000000, 5.000000000000000000 ) ) ;
#58 =( GEOMETRIC_REPRESENTATION_CONTEXT ( 3 ) GLOBAL_UNCERTAINTY_ASSIGNED_CONTEXT ( ( #5 ) ) GLOBAL_UNIT_ASSIGNED_CONTEXT ( ( #90, #12, #37 ) ) REPRESENTATION_CONTEXT ( 'NONE', 'WORKASPACE' ) );
#59 = AXIS2_PLACEMENT_3D ( 'NONE', #55, #1, #128 ) ;
#60 = ORIENTED_EDGE ( 'NONE', *, *, #72, .T. ) ;
#61 = APPROVAL_DATE_TIME ( #160, #107 ) ;
#62 = APPROVAL_ROLE ( '' ) ;
#63 = FACE_BOUND ( 'NONE', #163, .T. ) ;
#64 = CARTESIAN_POINT ( 'NONE',  ( 0.000000000000000000, 0.000000000000000000, 5.000000000000000000 ) ) ;
#65 = ORIENTED_EDGE ( 'NONE', *, *, #67, .T. ) ;
#66 = CIRCLE ( 'NONE', #16, 10.00000000000000000 ) ;
#67 = EDGE_CURVE ( 'NONE', #41, #2, #164, .T. ) ;
#68 = ADVANCED_BREP_SHAPE_REPRESENTATION ( 'Bague 12mm', ( #228, #6 ), #58 ) ;
#69 = APPROVAL_DATE_TIME ( #195, #207 ) ;
#70 = ORIENTED_EDGE ( 'NONE', *, *, #239, .F. ) ;
#71 = FACE_BOUND ( 'NONE', #232, .T. ) ;
#72 = EDGE_CURVE ( 'NONE', #117, #256, #96, .T. ) ;
#73 = DIRECTION ( 'NONE',  ( 0.000000000000000000, 0.000000000000000000, 1.000000000000000000 ) ) ;
#74 = PERSON_AND_ORGANIZATION ( #261, #287 ) ;
#75 = DIRECTION ( 'NONE',  ( -1.000000000000000000, 0.000000000000000000, 0.000000000000000000 ) ) ;
#76 = CARTESIAN_POINT ( 'NONE',  ( 0.000000000000000000, 0.000000000000000000, 5.000000000000000000 ) ) ;
#77 = ORIENTED_EDGE ( 'NONE', *, *, #265, .T. ) ;
#78 = ORIENTED_EDGE ( 'NONE', *, *, #275, .T. ) ;
#79 = FACE_OUTER_BOUND ( 'NONE', #166, .T. ) ;
#80 = CARTESIAN_POINT ( 'NONE',  ( 0.000000000000000000, 0.000000000000000000, 1.999999999999992228 ) ) ;
#81 = CARTESIAN_POINT ( 'NONE',  ( -6.000000000000000888, 7.347880794884120722E-16, 0.000000000000000000 ) ) ;
#82 = CARTESIAN_POINT ( 'NONE',  ( -6.000000000000000888, 7.347880794884120722E-16, 5.000000000000000000 ) ) ;
#83 = EDGE_CURVE ( 'NONE', #189, #95, #42, .T. ) ;
#84 = ORIENTED_EDGE ( 'NONE', *, *, #171, .F. ) ;
#85 = COORDINATED_UNIVERSAL_TIME_OFFSET ( 1, 0, .AHEAD. ) ;
#86 = DIRECTION ( 'NONE',  ( 1.000000000000000000, 0.000000000000000000, 0.000000000000000000 ) ) ;
#87 = APPROVAL_STATUS ( 'not_yet_approved' ) ;
#88 = CARTESIAN_POINT ( 'NONE',  ( 0.000000000000000000, 0.000000000000000000, 0.000000000000000000 ) ) ;
#89 = ORIENTED_EDGE ( 'NONE', *, *, #67, .F. ) ;
#90 =( LENGTH_UNIT ( ) NAMED_UNIT ( * ) SI_UNIT ( .MILLI., .METRE. ) );
#91 = ORIENTED_EDGE ( 'NONE', *, *, #113, .T. ) ;
#92 = COORDINATED_UNIVERSAL_TIME_OFFSET ( 1, 0, .AHEAD. ) ;
#93 = AXIS2_PLACEMENT_3D ( 'NONE', #80, #4, #104 ) ;
#94 = ADVANCED_FACE ( 'NONE', ( #127 ), #30, .T. ) ;
#95 = VERTEX_POINT ( 'NONE', #147 ) ;
#96 = CIRCLE ( 'NONE', #194, 6.000000000000000888 ) ;
#97 = ADVANCED_FACE ( 'NONE', ( #79 ), #119, .T. ) ;
#98 = CARTESIAN_POINT ( 'NONE',  ( 10.00000000000000000, 1.224646799147353256E-15, 1.999999999999992228 ) ) ;
#99 = ORIENTED_EDGE ( 'NONE', *, *, #291, .T. ) ;
#100 = DATE_AND_TIME ( #224, #293 ) ;
#101 = AXIS2_PLACEMENT_3D ( 'NONE', #231, #272, #75 ) ;
#102 = CARTESIAN_POINT ( 'NONE',  ( 0.000000000000000000, 0.000000000000000000, 5.000000000000000000 ) ) ;
#103 = DIRECTION ( 'NONE',  ( -0.000000000000000000, -0.000000000000000000, 1.000000000000000000 ) ) ;
#104 = DIRECTION ( 'NONE',  ( 1.000000000000000000, 0.000000000000000000, 0.000000000000000000 ) ) ;
#105 = DIRECTION ( 'NONE',  ( 1.000000000000000000, 0.000000000000000000, 0.000000000000000000 ) ) ;
#106 = PLANE ( 'NONE',  #26 ) ;
#107 = APPROVAL ( #38, 'UNSPECIFIED' ) ;
#108 = AXIS2_PLACEMENT_3D ( 'NONE', #281, #200, #177 ) ;
#109 = PERSON_AND_ORGANIZATION_ROLE ( 'creator' ) ;
#110 = EDGE_LOOP ( 'NONE', ( #135, #246, #150, #60 ) ) ;
#111 = CONICAL_SURFACE ( 'NONE', #234, 7.000000000000002665, 0.7853981633974466137 ) ;
#112 = PERSON_AND_ORGANIZATION_ROLE ( 'design_owner' ) ;
#113 = EDGE_CURVE ( 'NONE', #240, #256, #230, .T. ) ;
#114 = EDGE_LOOP ( 'NONE', ( #292, #91, #99, #136 ) ) ;
#115 = CIRCLE ( 'NONE', #187, 6.000000000000000888 ) ;
#116 = AXIS2_PLACEMENT_3D ( 'NONE', #31, #103, #223 ) ;
#117 = VERTEX_POINT ( 'NONE', #57 ) ;
#118 = DATE_AND_TIME ( #269, #264 ) ;
#119 = CYLINDRICAL_SURFACE ( 'NONE', #34, 10.00000000000000000 ) ;
#120 = ORIENTED_EDGE ( 'NONE', *, *, #290, .F. ) ;
#121 = VECTOR ( 'NONE', #282, 1000.000000000000000 ) ;
#122 = CALENDAR_DATE ( 2024, 16, 1 ) ;
#123 = AXIS2_PLACEMENT_3D ( 'NONE', #174, #32, #202 ) ;
#124 = DIRECTION ( 'NONE',  ( -0.000000000000000000, -0.000000000000000000, -1.000000000000000000 ) ) ;
#125 = PLANE ( 'NONE',  #213 ) ;
#126 = ORIENTED_EDGE ( 'NONE', *, *, #145, .T. ) ;
#127 = FACE_OUTER_BOUND ( 'NONE', #257, .T. ) ;
#128 = DIRECTION ( 'NONE',  ( -1.000000000000000000, 0.000000000000000000, 0.000000000000000000 ) ) ;
#129 = DIRECTION ( 'NONE',  ( 1.000000000000000000, 0.000000000000000000, 0.000000000000000000 ) ) ;
#130 = CALENDAR_DATE ( 2024, 16, 1 ) ;
#131 = CIRCLE ( 'NONE', #123, 10.00000000000000000 ) ;
#132 = DIRECTION ( 'NONE',  ( 0.000000000000000000, 0.000000000000000000, 1.000000000000000000 ) ) ;
#133 = PRODUCT_DEFINITION ( 'UNKNOWN', '', #170, #168 ) ;
#134 = PRODUCT_DEFINITION_SHAPE ( 'NONE', 'NONE',  #133 ) ;
#135 = ORIENTED_EDGE ( 'NONE', *, *, #113, .F. ) ;
#136 = ORIENTED_EDGE ( 'NONE', *, *, #47, .F. ) ;
#137 = CIRCLE ( 'NONE', #8, 7.000000000000002665 ) ;
#138 = PERSON_AND_ORGANIZATION ( #261, #287 ) ;
#139 = CC_DESIGN_APPROVAL ( #107, ( #133 ) ) ;
#140 = AXIS2_PLACEMENT_3D ( 'NONE', #88, #159, #86 ) ;
#141 = LINE ( 'NONE', #260, #46 ) ;
#142 = EDGE_CURVE ( 'NONE', #2, #250, #283, .T. ) ;
#143 = CARTESIAN_POINT ( 'NONE',  ( 0.000000000000000000, 0.000000000000000000, 0.000000000000000000 ) ) ;
#144 = VERTEX_POINT ( 'NONE', #299 ) ;
#145 = EDGE_CURVE ( 'NONE', #189, #41, #258, .T. ) ;
#146 = APPROVAL_PERSON_ORGANIZATION ( #138, #207, #39 ) ;
#147 = CARTESIAN_POINT ( 'NONE',  ( -7.000000000000002665, 0.000000000000000000, 5.000000000000000000 ) ) ;
#148 = CARTESIAN_POINT ( 'NONE',  ( 0.000000000000000000, 0.000000000000000000, 0.000000000000000000 ) ) ;
#149 = CC_DESIGN_APPROVAL ( #254, ( #170 ) ) ;
#150 = ORIENTED_EDGE ( 'NONE', *, *, #47, .T. ) ;
#151 = ORIENTED_EDGE ( 'NONE', *, *, #175, .T. ) ;
#152 = DIRECTION ( 'NONE',  ( -0.000000000000000000, -0.000000000000000000, -1.000000000000000000 ) ) ;
#153 = APPROVAL_PERSON_ORGANIZATION ( #237, #107, #62 ) ;
#154 = CC_DESIGN_PERSON_AND_ORGANIZATION_ASSIGNMENT ( #274, #266, ( #133 ) ) ;
#155 = AXIS2_PLACEMENT_3D ( 'NONE', #148, #54, #105 ) ;
#156 = SECURITY_CLASSIFICATION_LEVEL ( 'unclassified' ) ;
#157 = ORIENTED_EDGE ( 'NONE', *, *, #171, .T. ) ;
#158 = FACE_OUTER_BOUND ( 'NONE', #114, .T. ) ;
#159 = DIRECTION ( 'NONE',  ( 0.000000000000000000, 0.000000000000000000, 1.000000000000000000 ) ) ;
#160 = DATE_AND_TIME ( #130, #180 ) ;
#161 = EDGE_CURVE ( 'NONE', #250, #2, #131, .T. ) ;
#162 = ADVANCED_FACE ( 'NONE', ( #63, #9 ), #125, .F. ) ;
#163 = EDGE_LOOP ( 'NONE', ( #78, #167 ) ) ;
#164 = LINE ( 'NONE', #252, #271 ) ;
#165 = CC_DESIGN_PERSON_AND_ORGANIZATION_ASSIGNMENT ( #204, #109, ( #170 ) ) ;
#166 = EDGE_LOOP ( 'NONE', ( #89, #222, #157, #263 ) ) ;
#167 = ORIENTED_EDGE ( 'NONE', *, *, #273, .T. ) ;
#168 = DESIGN_CONTEXT ( 'detailed design', #206, 'design' ) ;
#169 = DIRECTION ( 'NONE',  ( 0.000000000000000000, 0.000000000000000000, -1.000000000000000000 ) ) ;
#170 = PRODUCT_DEFINITION_FORMATION_WITH_SPECIFIED_SOURCE ( 'ANY', '', #221, .NOT_KNOWN. ) ;
#171 = EDGE_CURVE ( 'NONE', #33, #250, #141, .T. ) ;
#172 = ORIENTED_EDGE ( 'NONE', *, *, #83, .F. ) ;
#173 = DIRECTION ( 'NONE',  ( -1.000000000000000000, 0.000000000000000000, 0.000000000000000000 ) ) ;
#174 = CARTESIAN_POINT ( 'NONE',  ( 0.000000000000000000, 0.000000000000000000, 0.000000000000000000 ) ) ;
#175 = EDGE_CURVE ( 'NONE', #95, #189, #137, .T. ) ;
#176 = FACE_OUTER_BOUND ( 'NONE', #209, .T. ) ;
#177 = DIRECTION ( 'NONE',  ( 1.000000000000000000, 0.000000000000000000, 0.000000000000000000 ) ) ;
#178 = AXIS2_PLACEMENT_3D ( 'NONE', #143, #193, #48 ) ;
#179 = APPLICATION_CONTEXT ( 'configuration controlled 3d designs of mechanical parts and assemblies' ) ;
#180 = LOCAL_TIME ( 22, 8, 26.00000000000000000, #212 ) ;
#181 = MECHANICAL_CONTEXT ( 'NONE', #179, 'mechanical' ) ;
#182 = CC_DESIGN_PERSON_AND_ORGANIZATION_ASSIGNMENT ( #35, #14, ( #170 ) ) ;
#183 = DIRECTION ( 'NONE',  ( 0.000000000000000000, 0.000000000000000000, -1.000000000000000000 ) ) ;
#184 = CLOSED_SHELL ( 'NONE', ( #94, #53, #188, #97, #197, #162, #185, #44 ) ) ;
#185 = ADVANCED_FACE ( 'NONE', ( #210 ), #15, .F. ) ;
#186 = LOCAL_TIME ( 22, 8, 26.00000000000000000, #92 ) ;
#187 = AXIS2_PLACEMENT_3D ( 'NONE', #64, #132, #225 ) ;
#188 = ADVANCED_FACE ( 'NONE', ( #201 ), #249, .T. ) ;
#189 = VERTEX_POINT ( 'NONE', #3 ) ;
#190 = ORIENTED_EDGE ( 'NONE', *, *, #83, .T. ) ;
#191 = CIRCLE ( 'NONE', #140, 6.000000000000000888 ) ;
#192 = DIRECTION ( 'NONE',  ( -0.000000000000000000, -0.000000000000000000, 1.000000000000000000 ) ) ;
#193 = DIRECTION ( 'NONE',  ( -0.000000000000000000, -0.000000000000000000, 1.000000000000000000 ) ) ;
#194 = AXIS2_PLACEMENT_3D ( 'NONE', #235, #73, #233 ) ;
#195 = DATE_AND_TIME ( #122, #17 ) ;
#196 = CARTESIAN_POINT ( 'NONE',  ( -6.000000000000000888, 7.347880794884120722E-16, 0.000000000000000000 ) ) ;
#197 = ADVANCED_FACE ( 'NONE', ( #176, #71 ), #106, .T. ) ;
#198 = CARTESIAN_POINT ( 'NONE',  ( -7.000000000000002665, 0.000000000000000000, 5.000000000000000000 ) ) ;
#199 = ORIENTED_EDGE ( 'NONE', *, *, #239, .T. ) ;
#200 = DIRECTION ( 'NONE',  ( 0.000000000000000000, 0.000000000000000000, 1.000000000000000000 ) ) ;
#201 = FACE_OUTER_BOUND ( 'NONE', #13, .T. ) ;
#202 = DIRECTION ( 'NONE',  ( 1.000000000000000000, 0.000000000000000000, 0.000000000000000000 ) ) ;
#203 = DIRECTION ( 'NONE',  ( 0.000000000000000000, 0.000000000000000000, 1.000000000000000000 ) ) ;
#204 = PERSON_AND_ORGANIZATION ( #261, #287 ) ;
#205 = DIRECTION ( 'NONE',  ( 0.000000000000000000, 0.000000000000000000, 1.000000000000000000 ) ) ;
#206 = APPLICATION_CONTEXT ( 'configuration controlled 3d designs of mechanical parts and assemblies' ) ;
#207 = APPROVAL ( #87, 'UNSPECIFIED' ) ;
#208 = DIRECTION ( 'NONE',  ( 1.000000000000000000, 0.000000000000000000, 0.000000000000000000 ) ) ;
#209 = EDGE_LOOP ( 'NONE', ( #151, #190 ) ) ;
#210 = FACE_OUTER_BOUND ( 'NONE', #110, .T. ) ;
#211 = PERSON_AND_ORGANIZATION_ROLE ( 'classification_officer' ) ;
#212 = COORDINATED_UNIVERSAL_TIME_OFFSET ( 1, 0, .AHEAD. ) ;
#213 = AXIS2_PLACEMENT_3D ( 'NONE', #241, #262, #259 ) ;
#214 = ORIENTED_EDGE ( 'NONE', *, *, #265, .F. ) ;
#215 = APPROVAL_PERSON_ORGANIZATION ( #74, #254, #286 ) ;
#216 = CC_DESIGN_APPROVAL ( #207, ( #270 ) ) ;
#217 = ORIENTED_EDGE ( 'NONE', *, *, #175, .F. ) ;
#218 = VECTOR ( 'NONE', #20, 1000.000000000000000 ) ;
#219 = CARTESIAN_POINT ( 'NONE',  ( -10.00000000000000000, 0.000000000000000000, 0.000000000000000000 ) ) ;
#220 = CARTESIAN_POINT ( 'NONE',  ( 0.000000000000000000, 0.000000000000000000, 5.000000000000000000 ) ) ;
#221 = PRODUCT ( 'Bague 12mm', 'Bague 12mm', '', ( #181 ) ) ;
#222 = ORIENTED_EDGE ( 'NONE', *, *, #290, .T. ) ;
#223 = DIRECTION ( 'NONE',  ( 1.000000000000000000, 0.000000000000000000, 0.000000000000000000 ) ) ;
#224 = CALENDAR_DATE ( 2024, 16, 1 ) ;
#225 = DIRECTION ( 'NONE',  ( 1.000000000000000000, 0.000000000000000000, 0.000000000000000000 ) ) ;
#226 = CARTESIAN_POINT ( 'NONE',  ( 0.000000000000000000, 0.000000000000000000, 1.999999999999992228 ) ) ;
#227 = EDGE_LOOP ( 'NONE', ( #22, #45 ) ) ;
#228 = MANIFOLD_SOLID_BREP ( 'Chamfer1', #184 ) ;
#229 = CC_DESIGN_SECURITY_CLASSIFICATION ( #270, ( #170 ) ) ;
#230 = LINE ( 'NONE', #196, #268 ) ;
#231 = CARTESIAN_POINT ( 'NONE',  ( 0.000000000000000000, 0.000000000000000000, 5.000000000000000000 ) ) ;
#232 = EDGE_LOOP ( 'NONE', ( #236, #285 ) ) ;
#233 = DIRECTION ( 'NONE',  ( 1.000000000000000000, 0.000000000000000000, 0.000000000000000000 ) ) ;
#234 = AXIS2_PLACEMENT_3D ( 'NONE', #296, #169, #251 ) ;
#235 = CARTESIAN_POINT ( 'NONE',  ( 0.000000000000000000, 0.000000000000000000, 5.000000000000000000 ) ) ;
#236 = ORIENTED_EDGE ( 'NONE', *, *, #72, .F. ) ;
#237 = PERSON_AND_ORGANIZATION ( #261, #287 ) ;
#238 = VECTOR ( 'NONE', #255, 1000.000000000000000 ) ;
#239 = EDGE_CURVE ( 'NONE', #95, #33, #247, .T. ) ;
#240 = VERTEX_POINT ( 'NONE', #81 ) ;
#241 = CARTESIAN_POINT ( 'NONE',  ( 0.000000000000000000, 0.000000000000000000, 0.000000000000000000 ) ) ;
#242 = CARTESIAN_POINT ( 'NONE',  ( 0.000000000000000000, 0.000000000000000000, 0.000000000000000000 ) ) ;
#243 = COORDINATED_UNIVERSAL_TIME_OFFSET ( 1, 0, .AHEAD. ) ;
#244 = APPLICATION_PROTOCOL_DEFINITION ( 'international standard', 'config_control_design', 1994, #206 ) ;
#245 = PRODUCT_RELATED_PRODUCT_CATEGORY ( 'detail', '', ( #221 ) ) ;
#246 = ORIENTED_EDGE ( 'NONE', *, *, #275, .F. ) ;
#247 = LINE ( 'NONE', #198, #238 ) ;
#248 = DATE_AND_TIME ( #23, #186 ) ;
#249 = CYLINDRICAL_SURFACE ( 'NONE', #59, 10.00000000000000000 ) ;
#250 = VERTEX_POINT ( 'NONE', #219 ) ;
#251 = DIRECTION ( 'NONE',  ( -1.000000000000000000, 0.000000000000000000, 0.000000000000000000 ) ) ;
#252 = CARTESIAN_POINT ( 'NONE',  ( 10.00000000000000000, 1.224646799147353256E-15, 5.000000000000000000 ) ) ;
#253 = PERSON_AND_ORGANIZATION ( #261, #287 ) ;
#254 = APPROVAL ( #10, 'UNSPECIFIED' ) ;
#255 = DIRECTION ( 'NONE',  ( -0.7071067811865463515, 0.000000000000000000, -0.7071067811865487940 ) ) ;
#256 = VERTEX_POINT ( 'NONE', #82 ) ;
#257 = EDGE_LOOP ( 'NONE', ( #172, #126, #214, #70 ) ) ;
#258 = LINE ( 'NONE', #51, #121 ) ;
#259 = DIRECTION ( 'NONE',  ( 1.000000000000000000, 0.000000000000000000, -0.000000000000000000 ) ) ;
#260 = CARTESIAN_POINT ( 'NONE',  ( -10.00000000000000000, 0.000000000000000000, 5.000000000000000000 ) ) ;
#261 = PERSON ( 'UNSPECIFIED', 'UNSPECIFIED', 'UNSPECIFIED', ('UNSPECIFIED'), ('UNSPECIFIED'), ('UNSPECIFIED') ) ;
#262 = DIRECTION ( 'NONE',  ( 0.000000000000000000, 0.000000000000000000, 1.000000000000000000 ) ) ;
#263 = ORIENTED_EDGE ( 'NONE', *, *, #161, .T. ) ;
#264 = LOCAL_TIME ( 22, 8, 26.00000000000000000, #297 ) ;
#265 = EDGE_CURVE ( 'NONE', #33, #41, #289, .T. ) ;
#266 = PERSON_AND_ORGANIZATION_ROLE ( 'creator' ) ;
#267 = APPLICATION_PROTOCOL_DEFINITION ( 'international standard', 'config_control_design', 1994, #179 ) ;
#268 = VECTOR ( 'NONE', #192, 1000.000000000000000 ) ;
#269 = CALENDAR_DATE ( 2024, 16, 1 ) ;
#270 = SECURITY_CLASSIFICATION ( '', '', #156 ) ;
#271 = VECTOR ( 'NONE', #124, 1000.000000000000000 ) ;
#272 = DIRECTION ( 'NONE',  ( 0.000000000000000000, 0.000000000000000000, -1.000000000000000000 ) ) ;
#273 = EDGE_CURVE ( 'NONE', #240, #144, #279, .T. ) ;
#274 = PERSON_AND_ORGANIZATION ( #261, #287 ) ;
#275 = EDGE_CURVE ( 'NONE', #144, #240, #191, .T. ) ;
#276 = CARTESIAN_POINT ( 'NONE',  ( 0.000000000000000000, 0.000000000000000000, 5.000000000000000000 ) ) ;
#277 = DIRECTION ( 'NONE',  ( 1.000000000000000000, 0.000000000000000000, 0.000000000000000000 ) ) ;
#278 = ORIENTED_EDGE ( 'NONE', *, *, #145, .F. ) ;
#279 = CIRCLE ( 'NONE', #108, 6.000000000000000888 ) ;
#280 = DIRECTION ( 'NONE',  ( 0.000000000000000000, 0.000000000000000000, 1.000000000000000000 ) ) ;
#281 = CARTESIAN_POINT ( 'NONE',  ( 0.000000000000000000, 0.000000000000000000, 0.000000000000000000 ) ) ;
#282 = DIRECTION ( 'NONE',  ( 0.7071067811865463515, 8.659560562354919300E-17, -0.7071067811865487940 ) ) ;
#283 = CIRCLE ( 'NONE', #155, 10.00000000000000000 ) ;
#284 = DATE_TIME_ROLE ( 'creation_date' ) ;
#285 = ORIENTED_EDGE ( 'NONE', *, *, #291, .F. ) ;
#286 = APPROVAL_ROLE ( '' ) ;
#287 = ORGANIZATION ( 'UNSPECIFIED', 'UNSPECIFIED', '' ) ;
#288 = ORIENTED_EDGE ( 'NONE', *, *, #142, .T. ) ;
#289 = CIRCLE ( 'NONE', #93, 10.00000000000000000 ) ;
#290 = EDGE_CURVE ( 'NONE', #41, #33, #66, .T. ) ;
#291 = EDGE_CURVE ( 'NONE', #256, #117, #115, .T. ) ;
#292 = ORIENTED_EDGE ( 'NONE', *, *, #273, .F. ) ;
#293 = LOCAL_TIME ( 22, 8, 26.00000000000000000, #243 ) ;
#294 = CYLINDRICAL_SURFACE ( 'NONE', #178, 6.000000000000000888 ) ;
#295 = CARTESIAN_POINT ( 'NONE',  ( 6.000000000000000888, 0.000000000000000000, 0.000000000000000000 ) ) ;
#296 = CARTESIAN_POINT ( 'NONE',  ( 0.000000000000000000, 0.000000000000000000, 5.000000000000000000 ) ) ;
#297 = COORDINATED_UNIVERSAL_TIME_OFFSET ( 1, 0, .AHEAD. ) ;
#298 = DIRECTION ( 'NONE',  ( -0.000000000000000000, -0.000000000000000000, -1.000000000000000000 ) ) ;
#299 = CARTESIAN_POINT ( 'NONE',  ( 6.000000000000000888, 0.000000000000000000, 0.000000000000000000 ) ) ;
ENDSEC;
END-ISO-10303-21;
