ISO-10303-21;
HEADER;
/* Generated by software containing ST-Developer
 * from STEP Tools, Inc. (www.steptools.com) 
 */
/* OPTION: using custom schema-name function */

FILE_DESCRIPTION(
/* description */ (''),
/* implementation_level */ '2;1');

FILE_NAME(
/* name */ 'contact \X\E9lectrique',
/* time_stamp */ '2024-01-17T08:19:48+01:00',
/* author */ (''),
/* organization */ (''),
/* preprocessor_version */ 'ST-DEVELOPER v16.5',
/* originating_system */ 'Rhino 7.36',
/* authorisation */ '');

FILE_SCHEMA (('CONFIG_CONTROL_DESIGN'));
ENDSEC;

DATA;
#10=SHAPE_REPRESENTATION_RELATIONSHIP('','',#186,#12);
#11=MANIFOLD_SOLID_BREP('brep_1',#13);
#12=ADVANCED_BREP_SHAPE_REPRESENTATION('brep_rep_0',(#11,#195),#185);
#13=CLOSED_SHELL('',(#15,#16,#17,#18,#19,#20,#21));
#14=FACE_BOUND('',#34,.T.);
#15=ADVANCED_FACE('',(#22),#97,.T.);
#16=ADVANCED_FACE('',(#23),#98,.T.);
#17=ADVANCED_FACE('',(#24),#93,.T.);
#18=ADVANCED_FACE('',(#25),#94,.F.);
#19=ADVANCED_FACE('',(#26,#14),#99,.T.);
#20=ADVANCED_FACE('',(#27),#95,.T.);
#21=ADVANCED_FACE('',(#28),#96,.F.);
#22=FACE_OUTER_BOUND('',#29,.T.);
#23=FACE_OUTER_BOUND('',#30,.T.);
#24=FACE_OUTER_BOUND('',#31,.T.);
#25=FACE_OUTER_BOUND('',#32,.T.);
#26=FACE_OUTER_BOUND('',#33,.T.);
#27=FACE_OUTER_BOUND('',#35,.T.);
#28=FACE_OUTER_BOUND('',#36,.T.);
#29=EDGE_LOOP('',(#37,#38));
#30=EDGE_LOOP('',(#39,#40));
#31=EDGE_LOOP('',(#41,#42,#43,#44));
#32=EDGE_LOOP('',(#45,#46,#47,#48));
#33=EDGE_LOOP('',(#49,#50));
#34=EDGE_LOOP('',(#51,#52));
#35=EDGE_LOOP('',(#53,#54,#55,#56));
#36=EDGE_LOOP('',(#57,#58,#59,#60));
#37=ORIENTED_EDGE('',*,*,#61,.T.);
#38=ORIENTED_EDGE('',*,*,#68,.T.);
#39=ORIENTED_EDGE('',*,*,#71,.F.);
#40=ORIENTED_EDGE('',*,*,#62,.F.);
#41=ORIENTED_EDGE('',*,*,#67,.T.);
#42=ORIENTED_EDGE('',*,*,#61,.F.);
#43=ORIENTED_EDGE('',*,*,#65,.F.);
#44=ORIENTED_EDGE('',*,*,#69,.F.);
#45=ORIENTED_EDGE('',*,*,#72,.T.);
#46=ORIENTED_EDGE('',*,*,#66,.T.);
#47=ORIENTED_EDGE('',*,*,#62,.T.);
#48=ORIENTED_EDGE('',*,*,#70,.F.);
#49=ORIENTED_EDGE('',*,*,#63,.T.);
#50=ORIENTED_EDGE('',*,*,#69,.T.);
#51=ORIENTED_EDGE('',*,*,#72,.F.);
#52=ORIENTED_EDGE('',*,*,#64,.F.);
#53=ORIENTED_EDGE('',*,*,#63,.F.);
#54=ORIENTED_EDGE('',*,*,#65,.T.);
#55=ORIENTED_EDGE('',*,*,#68,.F.);
#56=ORIENTED_EDGE('',*,*,#67,.F.);
#57=ORIENTED_EDGE('',*,*,#70,.T.);
#58=ORIENTED_EDGE('',*,*,#71,.T.);
#59=ORIENTED_EDGE('',*,*,#66,.F.);
#60=ORIENTED_EDGE('',*,*,#64,.T.);
#61=EDGE_CURVE('',#85,#90,#73,.T.);
#62=EDGE_CURVE('',#86,#92,#74,.T.);
#63=EDGE_CURVE('',#87,#89,#75,.T.);
#64=EDGE_CURVE('',#88,#91,#76,.T.);
#65=EDGE_CURVE('',#87,#85,#77,.T.);
#66=EDGE_CURVE('',#88,#86,#78,.T.);
#67=EDGE_CURVE('',#89,#90,#79,.T.);
#68=EDGE_CURVE('',#90,#85,#80,.T.);
#69=EDGE_CURVE('',#89,#87,#81,.T.);
#70=EDGE_CURVE('',#91,#92,#82,.T.);
#71=EDGE_CURVE('',#92,#86,#83,.T.);
#72=EDGE_CURVE('',#91,#88,#84,.T.);
#73=(
BOUNDED_CURVE()
B_SPLINE_CURVE(2,(#223,#224,#225,#226,#227),.UNSPECIFIED.,.F.,.F.)
B_SPLINE_CURVE_WITH_KNOTS((3,2,3),(0.,4.71238898038469,9.42477796076938),
 .UNSPECIFIED.)
CURVE()
GEOMETRIC_REPRESENTATION_ITEM()
RATIONAL_B_SPLINE_CURVE((1.,0.707106781186548,1.,0.707106781186548,1.))
REPRESENTATION_ITEM('')
);
#74=(
BOUNDED_CURVE()
B_SPLINE_CURVE(2,(#228,#229,#230,#231,#232),.UNSPECIFIED.,.F.,.F.)
B_SPLINE_CURVE_WITH_KNOTS((3,2,3),(-7.85398163397448,-5.89048622548086,
-3.92699081698724),.UNSPECIFIED.)
CURVE()
GEOMETRIC_REPRESENTATION_ITEM()
RATIONAL_B_SPLINE_CURVE((1.,0.707106781186548,1.,0.707106781186548,1.))
REPRESENTATION_ITEM('')
);
#75=(
BOUNDED_CURVE()
B_SPLINE_CURVE(2,(#233,#234,#235,#236,#237),.UNSPECIFIED.,.F.,.F.)
B_SPLINE_CURVE_WITH_KNOTS((3,2,3),(-18.8495559215388,-14.1371669411541,
-9.42477796076938),.UNSPECIFIED.)
CURVE()
GEOMETRIC_REPRESENTATION_ITEM()
RATIONAL_B_SPLINE_CURVE((1.,0.707106781186548,1.,0.707106781186548,1.))
REPRESENTATION_ITEM('')
);
#76=(
BOUNDED_CURVE()
B_SPLINE_CURVE(2,(#238,#239,#240,#241,#242),.UNSPECIFIED.,.F.,.F.)
B_SPLINE_CURVE_WITH_KNOTS((3,2,3),(0.,1.96349540849362,3.92699081698724),
 .UNSPECIFIED.)
CURVE()
GEOMETRIC_REPRESENTATION_ITEM()
RATIONAL_B_SPLINE_CURVE((1.,0.707106781186548,1.,0.707106781186548,1.))
REPRESENTATION_ITEM('')
);
#77=(
BOUNDED_CURVE()
B_SPLINE_CURVE(1,(#243,#244),.UNSPECIFIED.,.F.,.F.)
B_SPLINE_CURVE_WITH_KNOTS((2,2),(2.,7.99999999999997),.UNSPECIFIED.)
CURVE()
GEOMETRIC_REPRESENTATION_ITEM()
RATIONAL_B_SPLINE_CURVE((1.,1.))
REPRESENTATION_ITEM('')
);
#78=(
BOUNDED_CURVE()
B_SPLINE_CURVE(1,(#245,#246),.UNSPECIFIED.,.F.,.F.)
B_SPLINE_CURVE_WITH_KNOTS((2,2),(2.80000000000001,7.),.UNSPECIFIED.)
CURVE()
GEOMETRIC_REPRESENTATION_ITEM()
RATIONAL_B_SPLINE_CURVE((1.,1.))
REPRESENTATION_ITEM('')
);
#79=(
BOUNDED_CURVE()
B_SPLINE_CURVE(1,(#247,#248),.UNSPECIFIED.,.F.,.F.)
B_SPLINE_CURVE_WITH_KNOTS((2,2),(2.,7.99999999999997),.UNSPECIFIED.)
CURVE()
GEOMETRIC_REPRESENTATION_ITEM()
RATIONAL_B_SPLINE_CURVE((1.,1.))
REPRESENTATION_ITEM('')
);
#80=(
BOUNDED_CURVE()
B_SPLINE_CURVE(2,(#249,#250,#251,#252,#253),.UNSPECIFIED.,.F.,.F.)
B_SPLINE_CURVE_WITH_KNOTS((3,2,3),(9.42477796076938,14.1371669411541,18.8495559215388),
 .UNSPECIFIED.)
CURVE()
GEOMETRIC_REPRESENTATION_ITEM()
RATIONAL_B_SPLINE_CURVE((1.,0.707106781186548,1.,0.707106781186548,1.))
REPRESENTATION_ITEM('')
);
#81=(
BOUNDED_CURVE()
B_SPLINE_CURVE(2,(#254,#255,#256,#257,#258),.UNSPECIFIED.,.F.,.F.)
B_SPLINE_CURVE_WITH_KNOTS((3,2,3),(-9.42477796076938,-4.71238898038469,
0.),.UNSPECIFIED.)
CURVE()
GEOMETRIC_REPRESENTATION_ITEM()
RATIONAL_B_SPLINE_CURVE((1.,0.707106781186548,1.,0.707106781186548,1.))
REPRESENTATION_ITEM('')
);
#82=(
BOUNDED_CURVE()
B_SPLINE_CURVE(1,(#259,#260),.UNSPECIFIED.,.F.,.F.)
B_SPLINE_CURVE_WITH_KNOTS((2,2),(2.80000000000002,7.),.UNSPECIFIED.)
CURVE()
GEOMETRIC_REPRESENTATION_ITEM()
RATIONAL_B_SPLINE_CURVE((1.,1.))
REPRESENTATION_ITEM('')
);
#83=(
BOUNDED_CURVE()
B_SPLINE_CURVE(2,(#261,#262,#263,#264,#265),.UNSPECIFIED.,.F.,.F.)
B_SPLINE_CURVE_WITH_KNOTS((3,2,3),(-3.92699081698724,-1.96349540849362,
0.),.UNSPECIFIED.)
CURVE()
GEOMETRIC_REPRESENTATION_ITEM()
RATIONAL_B_SPLINE_CURVE((1.,0.707106781186548,1.,0.707106781186548,1.))
REPRESENTATION_ITEM('')
);
#84=(
BOUNDED_CURVE()
B_SPLINE_CURVE(2,(#266,#267,#268,#269,#270),.UNSPECIFIED.,.F.,.F.)
B_SPLINE_CURVE_WITH_KNOTS((3,2,3),(3.92699081698724,5.89048622548086,7.85398163397448),
 .UNSPECIFIED.)
CURVE()
GEOMETRIC_REPRESENTATION_ITEM()
RATIONAL_B_SPLINE_CURVE((1.,0.707106781186548,1.,0.707106781186548,1.))
REPRESENTATION_ITEM('')
);
#85=VERTEX_POINT('',#215);
#86=VERTEX_POINT('',#216);
#87=VERTEX_POINT('',#217);
#88=VERTEX_POINT('',#218);
#89=VERTEX_POINT('',#219);
#90=VERTEX_POINT('',#220);
#91=VERTEX_POINT('',#221);
#92=VERTEX_POINT('',#222);
#93=CYLINDRICAL_SURFACE('',#190,3.);
#94=CYLINDRICAL_SURFACE('',#191,1.25);
#95=CYLINDRICAL_SURFACE('',#193,3.00000000000001);
#96=CYLINDRICAL_SURFACE('',#194,1.25);
#97=PLANE('',#188);
#98=PLANE('',#189);
#99=PLANE('',#192);
#100=SHAPE_DEFINITION_REPRESENTATION(#101,#186);
#101=PRODUCT_DEFINITION_SHAPE('Document','',#103);
#102=PRODUCT_DEFINITION_CONTEXT('3D Mechanical Parts',#175,'design');
#103=PRODUCT_DEFINITION('A','First version',#145,#102);
#104=DATE_TIME_ROLE('classification_date');
#105=DATE_TIME_ROLE('creation_date');
#106=APPLIED_DATE_AND_TIME_ASSIGNMENT(#130,#104,(#109));
#107=APPLIED_DATE_AND_TIME_ASSIGNMENT(#132,#105,(#103));
#108=SECURITY_CLASSIFICATION_LEVEL('unclassified');
#109=SECURITY_CLASSIFICATION('A','Security for version',#108);
#110=APPLIED_SECURITY_CLASSIFICATION_ASSIGNMENT(#109,(#145));
#111=APPROVAL_ROLE('Version approval');
#112=APPROVAL_ROLE('Version Security approval');
#113=APPROVAL_ROLE('Definition approval');
#114=APPROVAL_PERSON_ORGANIZATION(#163,#139,#111);
#115=APPROVAL_PERSON_ORGANIZATION(#164,#140,#112);
#116=APPROVAL_PERSON_ORGANIZATION(#167,#141,#113);
#117=COORDINATED_UNIVERSAL_TIME_OFFSET(5,0,.BEHIND.);
#118=LOCAL_TIME(0,0,0.,#117);
#119=LOCAL_TIME(0,0,0.,#117);
#120=LOCAL_TIME(0,0,0.,#117);
#121=LOCAL_TIME(0,0,0.,#117);
#122=LOCAL_TIME(0,0,0.,#117);
#123=CALENDAR_DATE(1999,1,1);
#124=CALENDAR_DATE(1999,1,1);
#125=CALENDAR_DATE(1999,1,1);
#126=CALENDAR_DATE(1999,1,1);
#127=CALENDAR_DATE(1999,1,1);
#128=DATE_AND_TIME(#123,#118);
#129=DATE_AND_TIME(#124,#119);
#130=DATE_AND_TIME(#125,#120);
#131=DATE_AND_TIME(#126,#121);
#132=DATE_AND_TIME(#127,#122);
#133=APPROVAL_DATE_TIME(#128,#139);
#134=APPROVAL_DATE_TIME(#129,#140);
#135=APPROVAL_DATE_TIME(#131,#141);
#136=APPROVAL_STATUS('not_yet_approved');
#137=APPROVAL_STATUS('not_yet_approved');
#138=APPROVAL_STATUS('approved');
#139=APPROVAL(#136,'Version approval');
#140=APPROVAL(#137,'Version Security approval');
#141=APPROVAL(#138,'Definition approval');
#142=APPLIED_APPROVAL_ASSIGNMENT(#139,(#145));
#143=APPLIED_APPROVAL_ASSIGNMENT(#140,(#109));
#144=APPLIED_APPROVAL_ASSIGNMENT(#141,(#103));
#145=PRODUCT_DEFINITION_FORMATION_WITH_SPECIFIED_SOURCE('A',
'First version',#177,.MADE.);
#146=PERSON_AND_ORGANIZATION_ROLE('design_owner');
#147=PERSON_AND_ORGANIZATION_ROLE('creator');
#148=PERSON_AND_ORGANIZATION_ROLE('design_supplier');
#149=PERSON_AND_ORGANIZATION_ROLE('classification_officer');
#150=PERSON_AND_ORGANIZATION_ROLE('creator');
#151=ORGANIZATION('STI','lab','lab');
#152=ORGANIZATION('STI','unknown','unknown');
#153=ORGANIZATION('STI','unknown','unknown');
#154=ORGANIZATION('STI','unknown','unknown');
#155=ORGANIZATION('STI','unknown','unknown');
#156=ORGANIZATION('STI','unknown','unknown');
#157=ORGANIZATION('STI','unknown','unknown');
#158=PERSON('1','Box','vc60',$,$,$);
#159=PERSON('2','last','first',$,$,$);
#160=PERSON('3','President','Mr.',$,$,$);
#161=PERSON_AND_ORGANIZATION(#158,#151);
#162=PERSON_AND_ORGANIZATION(#159,#152);
#163=PERSON_AND_ORGANIZATION(#160,#153);
#164=PERSON_AND_ORGANIZATION(#160,#154);
#165=PERSON_AND_ORGANIZATION(#160,#155);
#166=PERSON_AND_ORGANIZATION(#159,#156);
#167=PERSON_AND_ORGANIZATION(#160,#157);
#168=APPLIED_PERSON_AND_ORGANIZATION_ASSIGNMENT(#161,#146,(#177));
#169=APPLIED_PERSON_AND_ORGANIZATION_ASSIGNMENT(#162,#147,(#145));
#170=APPLIED_PERSON_AND_ORGANIZATION_ASSIGNMENT(#162,#148,(#145));
#171=APPLIED_PERSON_AND_ORGANIZATION_ASSIGNMENT(#165,#149,(#109));
#172=APPLIED_PERSON_AND_ORGANIZATION_ASSIGNMENT(#166,#150,(#103));
#173=PRODUCT_RELATED_PRODUCT_CATEGORY('detail','detail',(#177));
#174=APPLICATION_PROTOCOL_DEFINITION('International Standard',
'config_control_design',1994,#175);
#175=APPLICATION_CONTEXT(
'configuration controlled 3d designs of mechanical parts and assemblie
s');
#176=PRODUCT_CONTEXT('3D Mechanical Parts',#175,'mechanical');
#177=PRODUCT('Document','Document','',(#176));
#178=(
LENGTH_UNIT()
NAMED_UNIT(*)
SI_UNIT(.MILLI.,.METRE.)
);
#179=(
NAMED_UNIT(*)
PLANE_ANGLE_UNIT()
SI_UNIT($,.RADIAN.)
);
#180=DIMENSIONAL_EXPONENTS(0.,0.,0.,0.,0.,0.,0.);
#181=PLANE_ANGLE_MEASURE_WITH_UNIT(PLANE_ANGLE_MEASURE(0.01745329252),#179);
#182=(
CONVERSION_BASED_UNIT('DEGREES',#181)
NAMED_UNIT(#180)
PLANE_ANGLE_UNIT()
);
#183=(
NAMED_UNIT(*)
SI_UNIT($,.STERADIAN.)
SOLID_ANGLE_UNIT()
);
#184=UNCERTAINTY_MEASURE_WITH_UNIT(LENGTH_MEASURE(1.E-5),#178,
'DISTANCE_ACCURACY_VALUE',
'Maximum model space distance between geometric entities at asserted c
onnectivities');
#185=(
GEOMETRIC_REPRESENTATION_CONTEXT(3)
GLOBAL_UNCERTAINTY_ASSIGNED_CONTEXT((#184))
GLOBAL_UNIT_ASSIGNED_CONTEXT((#183,#182,#178))
REPRESENTATION_CONTEXT('ID1','3D')
);
#186=SHAPE_REPRESENTATION('Document',(#187,#195),#185);
#187=AXIS2_PLACEMENT_3D('',#207,#196,#197);
#188=AXIS2_PLACEMENT_3D('',#208,#198,$);
#189=AXIS2_PLACEMENT_3D('',#209,#199,$);
#190=AXIS2_PLACEMENT_3D('',#210,#200,$);
#191=AXIS2_PLACEMENT_3D('',#211,#201,$);
#192=AXIS2_PLACEMENT_3D('',#212,#202,$);
#193=AXIS2_PLACEMENT_3D('',#213,#203,$);
#194=AXIS2_PLACEMENT_3D('',#214,#204,$);
#195=AXIS2_PLACEMENT_3D('',#271,#205,#206);
#196=DIRECTION('',(0.,0.,1.));
#197=DIRECTION('',(1.,0.,0.));
#198=DIRECTION('',(-1.,0.,0.));
#199=DIRECTION('',(1.,0.,0.));
#200=DIRECTION('',(-1.,0.,0.));
#201=DIRECTION('',(-1.,0.,0.));
#202=DIRECTION('',(1.,0.,0.));
#203=DIRECTION('',(-1.,0.,0.));
#204=DIRECTION('',(-1.,0.,0.));
#205=DIRECTION('',(0.,0.,1.));
#206=DIRECTION('',(1.,0.,0.));
#207=CARTESIAN_POINT('',(0.,0.,0.));
#208=CARTESIAN_POINT('',(-157.500000081311,13.75,5.25560036934481));
#209=CARTESIAN_POINT('',(-155.700000081311,11.5625,7.44310036934481));
#210=CARTESIAN_POINT('',(-153.500000081311,10.,9.0056003693448));
#211=CARTESIAN_POINT('',(-152.200000081311,10.,9.00560036934481));
#212=CARTESIAN_POINT('',(-151.500000081311,-15.,14.9112039867428));
#213=CARTESIAN_POINT('',(-153.500000081311,10.,9.00560036934481));
#214=CARTESIAN_POINT('',(-152.200000081311,10.,9.00560036934481));
#215=CARTESIAN_POINT('',(-157.500000081311,7.,9.0056003693448));
#216=CARTESIAN_POINT('',(-155.700000081311,11.25,9.00560036934481));
#217=CARTESIAN_POINT('',(-151.500000081311,7.,9.0056003693448));
#218=CARTESIAN_POINT('',(-151.500000081311,11.25,9.00560036934481));
#219=CARTESIAN_POINT('',(-151.500000081311,13.,9.0056003693448));
#220=CARTESIAN_POINT('',(-157.500000081311,13.,9.0056003693448));
#221=CARTESIAN_POINT('',(-151.500000081311,8.75,9.00560036934481));
#222=CARTESIAN_POINT('',(-155.700000081311,8.75,9.00560036934481));
#223=CARTESIAN_POINT('',(-157.500000081311,7.,9.0056003693448));
#224=CARTESIAN_POINT('',(-157.500000081311,7.,12.0056003693448));
#225=CARTESIAN_POINT('',(-157.500000081311,10.,12.0056003693448));
#226=CARTESIAN_POINT('',(-157.500000081311,13.,12.0056003693448));
#227=CARTESIAN_POINT('',(-157.500000081311,13.,9.0056003693448));
#228=CARTESIAN_POINT('',(-155.700000081311,11.25,9.00560036934481));
#229=CARTESIAN_POINT('',(-155.700000081311,11.25,7.75560036934481));
#230=CARTESIAN_POINT('',(-155.700000081311,10.,7.75560036934481));
#231=CARTESIAN_POINT('',(-155.700000081311,8.75000000000001,7.75560036934481));
#232=CARTESIAN_POINT('',(-155.700000081311,8.75,9.00560036934481));
#233=CARTESIAN_POINT('',(-151.500000081311,7.,9.0056003693448));
#234=CARTESIAN_POINT('',(-151.500000081311,7.,6.0056003693448));
#235=CARTESIAN_POINT('',(-151.500000081311,9.99999999999999,6.0056003693448));
#236=CARTESIAN_POINT('',(-151.500000081311,13.,6.0056003693448));
#237=CARTESIAN_POINT('',(-151.500000081311,13.,9.0056003693448));
#238=CARTESIAN_POINT('',(-151.500000081311,11.25,9.00560036934481));
#239=CARTESIAN_POINT('',(-151.500000081311,11.25,10.2556003693448));
#240=CARTESIAN_POINT('',(-151.500000081311,10.,10.2556003693448));
#241=CARTESIAN_POINT('',(-151.500000081311,8.75000000000001,10.2556003693448));
#242=CARTESIAN_POINT('',(-151.500000081311,8.75,9.00560036934481));
#243=CARTESIAN_POINT('',(-151.500000081311,7.,9.0056003693448));
#244=CARTESIAN_POINT('',(-157.500000081311,7.,9.0056003693448));
#245=CARTESIAN_POINT('',(-151.500000081311,11.25,9.00560036934481));
#246=CARTESIAN_POINT('',(-155.700000081311,11.25,9.00560036934481));
#247=CARTESIAN_POINT('',(-151.500000081311,13.,9.0056003693448));
#248=CARTESIAN_POINT('',(-157.500000081311,13.,9.0056003693448));
#249=CARTESIAN_POINT('',(-157.500000081311,13.,9.0056003693448));
#250=CARTESIAN_POINT('',(-157.500000081311,13.,6.0056003693448));
#251=CARTESIAN_POINT('',(-157.500000081311,9.99999999999999,6.0056003693448));
#252=CARTESIAN_POINT('',(-157.500000081311,7.,6.0056003693448));
#253=CARTESIAN_POINT('',(-157.500000081311,7.,9.0056003693448));
#254=CARTESIAN_POINT('',(-151.500000081311,13.,9.0056003693448));
#255=CARTESIAN_POINT('',(-151.500000081311,13.,12.0056003693448));
#256=CARTESIAN_POINT('',(-151.500000081311,10.,12.0056003693448));
#257=CARTESIAN_POINT('',(-151.500000081311,7.,12.0056003693448));
#258=CARTESIAN_POINT('',(-151.500000081311,7.,9.0056003693448));
#259=CARTESIAN_POINT('',(-151.500000081311,8.75,9.00560036934481));
#260=CARTESIAN_POINT('',(-155.700000081311,8.75,9.00560036934481));
#261=CARTESIAN_POINT('',(-155.700000081311,8.75,9.00560036934481));
#262=CARTESIAN_POINT('',(-155.700000081311,8.75000000000001,10.2556003693448));
#263=CARTESIAN_POINT('',(-155.700000081311,10.,10.2556003693448));
#264=CARTESIAN_POINT('',(-155.700000081311,11.25,10.2556003693448));
#265=CARTESIAN_POINT('',(-155.700000081311,11.25,9.00560036934481));
#266=CARTESIAN_POINT('',(-151.500000081311,8.75,9.00560036934481));
#267=CARTESIAN_POINT('',(-151.500000081311,8.75000000000001,7.75560036934481));
#268=CARTESIAN_POINT('',(-151.500000081311,10.,7.75560036934481));
#269=CARTESIAN_POINT('',(-151.500000081311,11.25,7.75560036934481));
#270=CARTESIAN_POINT('',(-151.500000081311,11.25,9.00560036934481));
#271=CARTESIAN_POINT('',(0.,0.,0.));
ENDSEC;
END-ISO-10303-21;
