ISO-10303-21;
HEADER;
FILE_DESCRIPTION (( 'STEP AP203' ),
    '1' );
FILE_NAME ('Bague 10mm.STEP',
    '2024-01-16T21:07:12',
    ( '' ),
    ( '' ),
    'SwSTEP 2.0',
    'SolidWorks 2018',
    '' );
FILE_SCHEMA (( 'CONFIG_CONTROL_DESIGN' ));
ENDSEC;

DATA;
#1 = VERTEX_POINT ( 'NONE', #285 ) ;
#2 = AXIS2_PLACEMENT_3D ( 'NONE', #102, #38, #264 ) ;
#3 = PERSON_AND_ORGANIZATION ( #270, #179 ) ;
#4 = CARTESIAN_POINT ( 'NONE',  ( 0.000000000000000000, 0.000000000000000000, 1.999999999999992228 ) ) ;
#5 = CARTESIAN_POINT ( 'NONE',  ( 0.000000000000000000, 0.000000000000000000, 1.999999999999992228 ) ) ;
#6 = CARTESIAN_POINT ( 'NONE',  ( 0.000000000000000000, 0.000000000000000000, 0.000000000000000000 ) ) ;
#7 = LINE ( 'NONE', #226, #191 ) ;
#8 = DIRECTION ( 'NONE',  ( -1.000000000000000000, 0.000000000000000000, 0.000000000000000000 ) ) ;
#9 = DIRECTION ( 'NONE',  ( -0.000000000000000000, -0.000000000000000000, 1.000000000000000000 ) ) ;
#10 = CIRCLE ( 'NONE', #90, 5.000000000000000000 ) ;
#11 = DIRECTION ( 'NONE',  ( 0.000000000000000000, 0.000000000000000000, -1.000000000000000000 ) ) ;
#12 = DIRECTION ( 'NONE',  ( 0.000000000000000000, 0.000000000000000000, 1.000000000000000000 ) ) ;
#13 = DIRECTION ( 'NONE',  ( 0.000000000000000000, 0.000000000000000000, 1.000000000000000000 ) ) ;
#14 = CARTESIAN_POINT ( 'NONE',  ( 0.000000000000000000, 0.000000000000000000, 5.000000000000000000 ) ) ;
#15 = DESIGN_CONTEXT ( 'detailed design', #114, 'design' ) ;
#16 = COORDINATED_UNIVERSAL_TIME_OFFSET ( 1, 0, .AHEAD. ) ;
#17 = MECHANICAL_CONTEXT ( 'NONE', #228, 'mechanical' ) ;
#18 = PERSON_AND_ORGANIZATION_ROLE ( 'design_supplier' ) ;
#19 = APPROVAL ( #92, 'UNSPECIFIED' ) ;
#20 = CYLINDRICAL_SURFACE ( 'NONE', #54, 10.00000000000000000 ) ;
#21 = AXIS2_PLACEMENT_3D ( 'NONE', #258, #86, #127 ) ;
#22 = ORIENTED_EDGE ( 'NONE', *, *, #219, .F. ) ;
#23 = CALENDAR_DATE ( 2024, 16, 1 ) ;
#24 = PRODUCT_DEFINITION ( 'UNKNOWN', '', #105, #15 ) ;
#25 = EDGE_CURVE ( 'NONE', #95, #39, #118, .T. ) ;
#26 = ORIENTED_EDGE ( 'NONE', *, *, #28, .F. ) ;
#27 = APPROVAL ( #207, 'UNSPECIFIED' ) ;
#28 = EDGE_CURVE ( 'NONE', #280, #1, #137, .T. ) ;
#29 = ORIENTED_EDGE ( 'NONE', *, *, #250, .F. ) ;
#30 = EDGE_LOOP ( 'NONE', ( #29, #253 ) ) ;
#31 = COORDINATED_UNIVERSAL_TIME_OFFSET ( 1, 0, .AHEAD. ) ;
#32 = CC_DESIGN_APPROVAL ( #19, ( #24 ) ) ;
#33 = AXIS2_PLACEMENT_3D ( 'NONE', #223, #13, #111 ) ;
#34 = DIRECTION ( 'NONE',  ( 0.000000000000000000, 0.000000000000000000, 1.000000000000000000 ) ) ;
#35 = FACE_OUTER_BOUND ( 'NONE', #176, .T. ) ;
#36 = DIRECTION ( 'NONE',  ( 1.000000000000000000, 0.000000000000000000, 0.000000000000000000 ) ) ;
#37 = PLANE ( 'NONE',  #271 ) ;
#38 = DIRECTION ( 'NONE',  ( 0.000000000000000000, 0.000000000000000000, -1.000000000000000000 ) ) ;
#39 = VERTEX_POINT ( 'NONE', #109 ) ;
#40 = DIRECTION ( 'NONE',  ( 1.000000000000000000, 0.000000000000000000, 0.000000000000000000 ) ) ;
#41 = ORIENTED_EDGE ( 'NONE', *, *, #119, .T. ) ;
#42 = DIRECTION ( 'NONE',  ( 1.000000000000000000, 0.000000000000000000, 0.000000000000000000 ) ) ;
#43 = COORDINATED_UNIVERSAL_TIME_OFFSET ( 1, 0, .AHEAD. ) ;
#44 = DIRECTION ( 'NONE',  ( 0.000000000000000000, 0.000000000000000000, 1.000000000000000000 ) ) ;
#45 = ORIENTED_EDGE ( 'NONE', *, *, #263, .T. ) ;
#46 = CC_DESIGN_APPROVAL ( #77, ( #105 ) ) ;
#47 = PERSON_AND_ORGANIZATION_ROLE ( 'classification_officer' ) ;
#48 = FACE_BOUND ( 'NONE', #98, .T. ) ;
#49 = CC_DESIGN_SECURITY_CLASSIFICATION ( #167, ( #105 ) ) ;
#50 = ORIENTED_EDGE ( 'NONE', *, *, #143, .F. ) ;
#51 = EDGE_CURVE ( 'NONE', #287, #1, #259, .T. ) ;
#52 = PERSON_AND_ORGANIZATION ( #270, #179 ) ;
#53 = VECTOR ( 'NONE', #9, 1000.000000000000000 ) ;
#54 = AXIS2_PLACEMENT_3D ( 'NONE', #177, #147, #265 ) ;
#55 = ORIENTED_EDGE ( 'NONE', *, *, #212, .F. ) ;
#56 = EDGE_CURVE ( 'NONE', #216, #123, #206, .T. ) ;
#57 = ORIENTED_EDGE ( 'NONE', *, *, #25, .F. ) ;
#58 = AXIS2_PLACEMENT_3D ( 'NONE', #134, #12, #66 ) ;
#59 = CARTESIAN_POINT ( 'NONE',  ( -10.00000000000000000, 0.000000000000000000, 0.000000000000000000 ) ) ;
#60 = APPROVAL_PERSON_ORGANIZATION ( #276, #27, #186 ) ;
#61 = CONICAL_SURFACE ( 'NONE', #2, 7.000000000000002665, 0.7853981633974466137 ) ;
#62 = CARTESIAN_POINT ( 'NONE',  ( 0.000000000000000000, 0.000000000000000000, 5.000000000000000000 ) ) ;
#63 = EDGE_LOOP ( 'NONE', ( #57, #124, #189, #273 ) ) ;
#64 = PLANE ( 'NONE',  #238 ) ;
#65 = EDGE_CURVE ( 'NONE', #1, #123, #249, .T. ) ;
#66 = DIRECTION ( 'NONE',  ( 1.000000000000000000, 0.000000000000000000, 0.000000000000000000 ) ) ;
#67 = PRODUCT ( 'Bague 10mm', 'Bague 10mm', '', ( #17 ) ) ;
#68 = APPLICATION_PROTOCOL_DEFINITION ( 'international standard', 'config_control_design', 1994, #114 ) ;
#69 = ORIENTED_EDGE ( 'NONE', *, *, #187, .T. ) ;
#70 = LOCAL_TIME ( 22, 7, 12.00000000000000000, #43 ) ;
#71 = DIRECTION ( 'NONE',  ( 1.000000000000000000, 0.000000000000000000, 0.000000000000000000 ) ) ;
#72 = AXIS2_PLACEMENT_3D ( 'NONE', #6, #110, #241 ) ;
#73 = CIRCLE ( 'NONE', #129, 7.000000000000002665 ) ;
#74 = ORIENTED_EDGE ( 'NONE', *, *, #56, .T. ) ;
#75 = PERSON_AND_ORGANIZATION ( #270, #179 ) ;
#76 = AXIS2_PLACEMENT_3D ( 'NONE', #200, #178, #40 ) ;
#77 = APPROVAL ( #184, 'UNSPECIFIED' ) ;
#78 = FACE_OUTER_BOUND ( 'NONE', #117, .T. ) ;
#79 = ORIENTED_EDGE ( 'NONE', *, *, #119, .F. ) ;
#80 = COORDINATED_UNIVERSAL_TIME_OFFSET ( 1, 0, .AHEAD. ) ;
#81 = DIRECTION ( 'NONE',  ( 0.000000000000000000, 0.000000000000000000, 1.000000000000000000 ) ) ;
#82 = AXIS2_PLACEMENT_3D ( 'NONE', #4, #128, #104 ) ;
#83 = CARTESIAN_POINT ( 'NONE',  ( 0.000000000000000000, 0.000000000000000000, 0.000000000000000000 ) ) ;
#84 = DIRECTION ( 'NONE',  ( 1.000000000000000000, 0.000000000000000000, 0.000000000000000000 ) ) ;
#85 = ADVANCED_FACE ( 'NONE', ( #142, #221 ), #37, .T. ) ;
#86 = DIRECTION ( 'NONE',  ( -0.000000000000000000, -0.000000000000000000, 1.000000000000000000 ) ) ;
#87 = EDGE_LOOP ( 'NONE', ( #192, #168 ) ) ;
#88 = LOCAL_TIME ( 22, 7, 12.00000000000000000, #211 ) ;
#89 = PERSON_AND_ORGANIZATION_ROLE ( 'creator' ) ;
#90 = AXIS2_PLACEMENT_3D ( 'NONE', #266, #146, #84 ) ;
#91 = VECTOR ( 'NONE', #173, 1000.000000000000000 ) ;
#92 = APPROVAL_STATUS ( 'not_yet_approved' ) ;
#93 = ADVANCED_FACE ( 'NONE', ( #94 ), #20, .T. ) ;
#94 = FACE_OUTER_BOUND ( 'NONE', #108, .T. ) ;
#95 = VERTEX_POINT ( 'NONE', #290 ) ;
#96 = DATE_AND_TIME ( #120, #70 ) ;
#97 = CC_DESIGN_PERSON_AND_ORGANIZATION_ASSIGNMENT ( #231, #269, ( #24 ) ) ;
#98 = EDGE_LOOP ( 'NONE', ( #45, #99 ) ) ;
#99 = ORIENTED_EDGE ( 'NONE', *, *, #25, .T. ) ;
#100 = ORIENTED_EDGE ( 'NONE', *, *, #138, .F. ) ;
#101 = MANIFOLD_SOLID_BREP ( 'Chamfer1', #169 ) ;
#102 = CARTESIAN_POINT ( 'NONE',  ( 0.000000000000000000, 0.000000000000000000, 5.000000000000000000 ) ) ;
#103 = LINE ( 'NONE', #174, #236 ) ;
#104 = DIRECTION ( 'NONE',  ( 1.000000000000000000, 0.000000000000000000, 0.000000000000000000 ) ) ;
#105 = PRODUCT_DEFINITION_FORMATION_WITH_SPECIFIED_SOURCE ( 'ANY', '', #67, .NOT_KNOWN. ) ;
#106 = DIRECTION ( 'NONE',  ( 0.000000000000000000, 0.000000000000000000, 1.000000000000000000 ) ) ;
#107 = CC_DESIGN_APPROVAL ( #27, ( #167 ) ) ;
#108 = EDGE_LOOP ( 'NONE', ( #256, #164, #144, #295 ) ) ;
#109 = CARTESIAN_POINT ( 'NONE',  ( 5.000000000000000000, 0.000000000000000000, 0.000000000000000000 ) ) ;
#110 = DIRECTION ( 'NONE',  ( 0.000000000000000000, 0.000000000000000000, 1.000000000000000000 ) ) ;
#111 = DIRECTION ( 'NONE',  ( 1.000000000000000000, 0.000000000000000000, 0.000000000000000000 ) ) ;
#112 =( NAMED_UNIT ( * ) PLANE_ANGLE_UNIT ( ) SI_UNIT ( $, .RADIAN. ) );
#113 = DIRECTION ( 'NONE',  ( -1.000000000000000000, 0.000000000000000000, 0.000000000000000000 ) ) ;
#114 = APPLICATION_CONTEXT ( 'configuration controlled 3d designs of mechanical parts and assemblies' ) ;
#115 = CALENDAR_DATE ( 2024, 16, 1 ) ;
#116 = AXIS2_PLACEMENT_3D ( 'NONE', #153, #180, #130 ) ;
#117 = EDGE_LOOP ( 'NONE', ( #163, #157, #201, #74 ) ) ;
#118 = CIRCLE ( 'NONE', #116, 5.000000000000000000 ) ;
#119 = EDGE_CURVE ( 'NONE', #210, #280, #7, .T. ) ;
#120 = CALENDAR_DATE ( 2024, 16, 1 ) ;
#121 = CC_DESIGN_PERSON_AND_ORGANIZATION_ASSIGNMENT ( #141, #89, ( #105 ) ) ;
#122 = CYLINDRICAL_SURFACE ( 'NONE', #175, 10.00000000000000000 ) ;
#123 = VERTEX_POINT ( 'NONE', #205 ) ;
#124 = ORIENTED_EDGE ( 'NONE', *, *, #212, .T. ) ;
#125 = APPROVAL_DATE_TIME ( #190, #19 ) ;
#126 = CYLINDRICAL_SURFACE ( 'NONE', #76, 5.000000000000000000 ) ;
#127 = DIRECTION ( 'NONE',  ( 1.000000000000000000, 0.000000000000000000, 0.000000000000000000 ) ) ;
#128 = DIRECTION ( 'NONE',  ( 0.000000000000000000, 0.000000000000000000, -1.000000000000000000 ) ) ;
#129 = AXIS2_PLACEMENT_3D ( 'NONE', #14, #44, #181 ) ;
#130 = DIRECTION ( 'NONE',  ( 1.000000000000000000, 0.000000000000000000, 0.000000000000000000 ) ) ;
#131 = CARTESIAN_POINT ( 'NONE',  ( -5.000000000000000000, 6.123233995736766282E-16, 0.000000000000000000 ) ) ;
#132 = CYLINDRICAL_SURFACE ( 'NONE', #21, 5.000000000000000000 ) ;
#133 = DIRECTION ( 'NONE',  ( 0.000000000000000000, 0.000000000000000000, 1.000000000000000000 ) ) ;
#134 = CARTESIAN_POINT ( 'NONE',  ( 0.000000000000000000, 0.000000000000000000, 5.000000000000000000 ) ) ;
#135 = SECURITY_CLASSIFICATION_LEVEL ( 'unclassified' ) ;
#136 = DATE_AND_TIME ( #296, #251 ) ;
#137 = CIRCLE ( 'NONE', #161, 10.00000000000000000 ) ;
#138 = EDGE_CURVE ( 'NONE', #210, #287, #73, .T. ) ;
#139 = ADVANCED_FACE ( 'NONE', ( #78 ), #122, .T. ) ;
#140 = EDGE_LOOP ( 'NONE', ( #230, #50 ) ) ;
#141 = PERSON_AND_ORGANIZATION ( #270, #179 ) ;
#142 = FACE_OUTER_BOUND ( 'NONE', #87, .T. ) ;
#143 = EDGE_CURVE ( 'NONE', #123, #216, #299, .T. ) ;
#144 = ORIENTED_EDGE ( 'NONE', *, *, #143, .T. ) ;
#145 =( GEOMETRIC_REPRESENTATION_CONTEXT ( 3 ) GLOBAL_UNCERTAINTY_ASSIGNED_CONTEXT ( ( #274 ) ) GLOBAL_UNIT_ASSIGNED_CONTEXT ( ( #156, #112, #244 ) ) REPRESENTATION_CONTEXT ( 'NONE', 'WORKASPACE' ) );
#146 = DIRECTION ( 'NONE',  ( 0.000000000000000000, 0.000000000000000000, 1.000000000000000000 ) ) ;
#147 = DIRECTION ( 'NONE',  ( -0.000000000000000000, -0.000000000000000000, -1.000000000000000000 ) ) ;
#148 = CARTESIAN_POINT ( 'NONE',  ( -7.000000000000002665, 0.000000000000000000, 5.000000000000000000 ) ) ;
#149 = CC_DESIGN_PERSON_AND_ORGANIZATION_ASSIGNMENT ( #3, #18, ( #105 ) ) ;
#150 = CONICAL_SURFACE ( 'NONE', #227, 7.000000000000002665, 0.7853981633974466137 ) ;
#151 = DIRECTION ( 'NONE',  ( 0.7071067811865463515, 8.659560562354919300E-17, -0.7071067811865487940 ) ) ;
#152 = CARTESIAN_POINT ( 'NONE',  ( 7.000000000000002665, 1.040949779275250337E-15, 5.000000000000000000 ) ) ;
#153 = CARTESIAN_POINT ( 'NONE',  ( 0.000000000000000000, 0.000000000000000000, 0.000000000000000000 ) ) ;
#154 = PERSON_AND_ORGANIZATION ( #270, #179 ) ;
#155 = CARTESIAN_POINT ( 'NONE',  ( 0.000000000000000000, 0.000000000000000000, 5.000000000000000000 ) ) ;
#156 =( LENGTH_UNIT ( ) NAMED_UNIT ( * ) SI_UNIT ( .MILLI., .METRE. ) );
#157 = ORIENTED_EDGE ( 'NONE', *, *, #219, .T. ) ;
#158 = APPROVAL_ROLE ( '' ) ;
#159 = CC_DESIGN_DATE_AND_TIME_ASSIGNMENT ( #136, #225, ( #24 ) ) ;
#160 = CIRCLE ( 'NONE', #72, 5.000000000000000000 ) ;
#161 = AXIS2_PLACEMENT_3D ( 'NONE', #5, #11, #42 ) ;
#162 = VECTOR ( 'NONE', #151, 1000.000000000000000 ) ;
#163 = ORIENTED_EDGE ( 'NONE', *, *, #65, .F. ) ;
#164 = ORIENTED_EDGE ( 'NONE', *, *, #65, .T. ) ;
#165 = EDGE_CURVE ( 'NONE', #245, #255, #272, .T. ) ;
#166 = LINE ( 'NONE', #131, #53 ) ;
#167 = SECURITY_CLASSIFICATION ( '', '', #135 ) ;
#168 = ORIENTED_EDGE ( 'NONE', *, *, #294, .T. ) ;
#169 = CLOSED_SHELL ( 'NONE', ( #208, #220, #93, #139, #85, #262, #275, #229 ) ) ;
#170 = CARTESIAN_POINT ( 'NONE',  ( 5.000000000000000000, 0.000000000000000000, 0.000000000000000000 ) ) ;
#171 = LOCAL_TIME ( 22, 7, 12.00000000000000000, #31 ) ;
#172 = CARTESIAN_POINT ( 'NONE',  ( 7.000000000000002665, 8.572527594031475162E-16, 5.000000000000000000 ) ) ;
#173 = DIRECTION ( 'NONE',  ( -0.000000000000000000, -0.000000000000000000, -1.000000000000000000 ) ) ;
#174 = CARTESIAN_POINT ( 'NONE',  ( -10.00000000000000000, 0.000000000000000000, 5.000000000000000000 ) ) ;
#175 = AXIS2_PLACEMENT_3D ( 'NONE', #155, #203, #113 ) ;
#176 = EDGE_LOOP ( 'NONE', ( #55, #277, #69, #288 ) ) ;
#177 = CARTESIAN_POINT ( 'NONE',  ( 0.000000000000000000, 0.000000000000000000, 5.000000000000000000 ) ) ;
#178 = DIRECTION ( 'NONE',  ( -0.000000000000000000, -0.000000000000000000, 1.000000000000000000 ) ) ;
#179 = ORGANIZATION ( 'UNSPECIFIED', 'UNSPECIFIED', '' ) ;
#180 = DIRECTION ( 'NONE',  ( 0.000000000000000000, 0.000000000000000000, 1.000000000000000000 ) ) ;
#181 = DIRECTION ( 'NONE',  ( 1.000000000000000000, 0.000000000000000000, 0.000000000000000000 ) ) ;
#182 = EDGE_LOOP ( 'NONE', ( #279, #100, #41, #22 ) ) ;
#183 = DIRECTION ( 'NONE',  ( -0.7071067811865463515, 0.000000000000000000, -0.7071067811865487940 ) ) ;
#184 = APPROVAL_STATUS ( 'not_yet_approved' ) ;
#185 = DATE_AND_TIME ( #23, #88 ) ;
#186 = APPROVAL_ROLE ( '' ) ;
#187 = EDGE_CURVE ( 'NONE', #39, #255, #240, .T. ) ;
#188 = APPROVAL_ROLE ( '' ) ;
#189 = ORIENTED_EDGE ( 'NONE', *, *, #165, .T. ) ;
#190 = DATE_AND_TIME ( #246, #292 ) ;
#191 = VECTOR ( 'NONE', #183, 1000.000000000000000 ) ;
#192 = ORIENTED_EDGE ( 'NONE', *, *, #138, .T. ) ;
#193 = APPROVAL_DATE_TIME ( #185, #77 ) ;
#194 = DIRECTION ( 'NONE',  ( 1.000000000000000000, 0.000000000000000000, -0.000000000000000000 ) ) ;
#195 = AXIS2_PLACEMENT_3D ( 'NONE', #237, #106, #36 ) ;
#196 = ORIENTED_EDGE ( 'NONE', *, *, #294, .F. ) ;
#197 = DIRECTION ( 'NONE',  ( -0.000000000000000000, -0.000000000000000000, 1.000000000000000000 ) ) ;
#198 = CARTESIAN_POINT ( 'NONE',  ( 0.000000000000000000, 0.000000000000000000, 5.000000000000000000 ) ) ;
#199 = DIRECTION ( 'NONE',  ( -0.000000000000000000, -0.000000000000000000, -1.000000000000000000 ) ) ;
#200 = CARTESIAN_POINT ( 'NONE',  ( 0.000000000000000000, 0.000000000000000000, 0.000000000000000000 ) ) ;
#201 = ORIENTED_EDGE ( 'NONE', *, *, #233, .T. ) ;
#202 = DIRECTION ( 'NONE',  ( 1.000000000000000000, 0.000000000000000000, 0.000000000000000000 ) ) ;
#203 = DIRECTION ( 'NONE',  ( -0.000000000000000000, -0.000000000000000000, -1.000000000000000000 ) ) ;
#204 = APPROVAL_PERSON_ORGANIZATION ( #75, #77, #158 ) ;
#205 = CARTESIAN_POINT ( 'NONE',  ( 10.00000000000000000, 1.224646799147353256E-15, 0.000000000000000000 ) ) ;
#206 = CIRCLE ( 'NONE', #33, 10.00000000000000000 ) ;
#207 = APPROVAL_STATUS ( 'not_yet_approved' ) ;
#208 = ADVANCED_FACE ( 'NONE', ( #213 ), #61, .T. ) ;
#209 = EDGE_LOOP ( 'NONE', ( #196, #232, #26, #79 ) ) ;
#210 = VERTEX_POINT ( 'NONE', #148 ) ;
#211 = COORDINATED_UNIVERSAL_TIME_OFFSET ( 1, 0, .AHEAD. ) ;
#212 = EDGE_CURVE ( 'NONE', #95, #245, #166, .T. ) ;
#213 = FACE_OUTER_BOUND ( 'NONE', #209, .T. ) ;
#214 = CC_DESIGN_DATE_AND_TIME_ASSIGNMENT ( #96, #248, ( #167 ) ) ;
#215 = APPROVAL_DATE_TIME ( #268, #27 ) ;
#216 = VERTEX_POINT ( 'NONE', #59 ) ;
#217 = FACE_OUTER_BOUND ( 'NONE', #140, .T. ) ;
#218 = DIRECTION ( 'NONE',  ( 1.000000000000000000, 0.000000000000000000, -0.000000000000000000 ) ) ;
#219 = EDGE_CURVE ( 'NONE', #1, #280, #284, .T. ) ;
#220 = ADVANCED_FACE ( 'NONE', ( #247 ), #126, .F. ) ;
#221 = FACE_BOUND ( 'NONE', #30, .T. ) ;
#222 = CARTESIAN_POINT ( 'NONE',  ( 0.000000000000000000, 0.000000000000000000, 5.000000000000000000 ) ) ;
#223 = CARTESIAN_POINT ( 'NONE',  ( 0.000000000000000000, 0.000000000000000000, 0.000000000000000000 ) ) ;
#224 = FACE_OUTER_BOUND ( 'NONE', #182, .T. ) ;
#225 = DATE_TIME_ROLE ( 'creation_date' ) ;
#226 = CARTESIAN_POINT ( 'NONE',  ( -7.000000000000002665, 0.000000000000000000, 5.000000000000000000 ) ) ;
#227 = AXIS2_PLACEMENT_3D ( 'NONE', #222, #242, #8 ) ;
#228 = APPLICATION_CONTEXT ( 'configuration controlled 3d designs of mechanical parts and assemblies' ) ;
#229 = ADVANCED_FACE ( 'NONE', ( #224 ), #150, .T. ) ;
#230 = ORIENTED_EDGE ( 'NONE', *, *, #56, .F. ) ;
#231 = PERSON_AND_ORGANIZATION ( #270, #179 ) ;
#232 = ORIENTED_EDGE ( 'NONE', *, *, #51, .T. ) ;
#233 = EDGE_CURVE ( 'NONE', #280, #216, #103, .T. ) ;
#234 = SHAPE_DEFINITION_REPRESENTATION ( #293, #243 ) ;
#235 = APPROVAL_PERSON_ORGANIZATION ( #154, #19, #188 ) ;
#236 = VECTOR ( 'NONE', #199, 1000.000000000000000 ) ;
#237 = CARTESIAN_POINT ( 'NONE',  ( 0.000000000000000000, 0.000000000000000000, 0.000000000000000000 ) ) ;
#238 = AXIS2_PLACEMENT_3D ( 'NONE', #83, #81, #194 ) ;
#239 = CARTESIAN_POINT ( 'NONE',  ( -5.000000000000000000, 6.123233995736766282E-16, 5.000000000000000000 ) ) ;
#240 = LINE ( 'NONE', #170, #254 ) ;
#241 = DIRECTION ( 'NONE',  ( 1.000000000000000000, 0.000000000000000000, 0.000000000000000000 ) ) ;
#242 = DIRECTION ( 'NONE',  ( 0.000000000000000000, 0.000000000000000000, -1.000000000000000000 ) ) ;
#243 = ADVANCED_BREP_SHAPE_REPRESENTATION ( 'Bague 10mm', ( #101, #282 ), #145 ) ;
#244 =( NAMED_UNIT ( * ) SI_UNIT ( $, .STERADIAN. ) SOLID_ANGLE_UNIT ( ) );
#245 = VERTEX_POINT ( 'NONE', #239 ) ;
#246 = CALENDAR_DATE ( 2024, 16, 1 ) ;
#247 = FACE_OUTER_BOUND ( 'NONE', #63, .T. ) ;
#248 = DATE_TIME_ROLE ( 'classification_date' ) ;
#249 = LINE ( 'NONE', #281, #91 ) ;
#250 = EDGE_CURVE ( 'NONE', #255, #245, #10, .T. ) ;
#251 = LOCAL_TIME ( 22, 7, 12.00000000000000000, #80 ) ;
#252 = CC_DESIGN_PERSON_AND_ORGANIZATION_ASSIGNMENT ( #52, #47, ( #167 ) ) ;
#253 = ORIENTED_EDGE ( 'NONE', *, *, #165, .F. ) ;
#254 = VECTOR ( 'NONE', #197, 1000.000000000000000 ) ;
#255 = VERTEX_POINT ( 'NONE', #289 ) ;
#256 = ORIENTED_EDGE ( 'NONE', *, *, #28, .T. ) ;
#257 = PERSON_AND_ORGANIZATION ( #270, #179 ) ;
#258 = CARTESIAN_POINT ( 'NONE',  ( 0.000000000000000000, 0.000000000000000000, 0.000000000000000000 ) ) ;
#259 = LINE ( 'NONE', #172, #162 ) ;
#260 = CIRCLE ( 'NONE', #298, 7.000000000000002665 ) ;
#261 = CARTESIAN_POINT ( 'NONE',  ( 0.000000000000000000, 0.000000000000000000, 0.000000000000000000 ) ) ;
#262 = ADVANCED_FACE ( 'NONE', ( #48, #217 ), #64, .F. ) ;
#263 = EDGE_CURVE ( 'NONE', #39, #95, #160, .T. ) ;
#264 = DIRECTION ( 'NONE',  ( -1.000000000000000000, 0.000000000000000000, 0.000000000000000000 ) ) ;
#265 = DIRECTION ( 'NONE',  ( -1.000000000000000000, 0.000000000000000000, 0.000000000000000000 ) ) ;
#266 = CARTESIAN_POINT ( 'NONE',  ( 0.000000000000000000, 0.000000000000000000, 5.000000000000000000 ) ) ;
#267 = APPLICATION_PROTOCOL_DEFINITION ( 'international standard', 'config_control_design', 1994, #228 ) ;
#268 = DATE_AND_TIME ( #115, #171 ) ;
#269 = PERSON_AND_ORGANIZATION_ROLE ( 'creator' ) ;
#270 = PERSON ( 'UNSPECIFIED', 'UNSPECIFIED', 'UNSPECIFIED', ('UNSPECIFIED'), ('UNSPECIFIED'), ('UNSPECIFIED') ) ;
#271 = AXIS2_PLACEMENT_3D ( 'NONE', #198, #34, #218 ) ;
#272 = CIRCLE ( 'NONE', #58, 5.000000000000000000 ) ;
#273 = ORIENTED_EDGE ( 'NONE', *, *, #187, .F. ) ;
#274 = UNCERTAINTY_MEASURE_WITH_UNIT (LENGTH_MEASURE( 1.000000000000000082E-05 ), #156, 'distance_accuracy_value', 'NONE');
#275 = ADVANCED_FACE ( 'NONE', ( #35 ), #132, .F. ) ;
#276 = PERSON_AND_ORGANIZATION ( #270, #179 ) ;
#277 = ORIENTED_EDGE ( 'NONE', *, *, #263, .F. ) ;
#278 = PRODUCT_RELATED_PRODUCT_CATEGORY ( 'detail', '', ( #67 ) ) ;
#279 = ORIENTED_EDGE ( 'NONE', *, *, #51, .F. ) ;
#280 = VERTEX_POINT ( 'NONE', #283 ) ;
#281 = CARTESIAN_POINT ( 'NONE',  ( 10.00000000000000000, 1.224646799147353256E-15, 5.000000000000000000 ) ) ;
#282 = AXIS2_PLACEMENT_3D ( 'NONE', #261, #286, #202 ) ;
#283 = CARTESIAN_POINT ( 'NONE',  ( -10.00000000000000000, 0.000000000000000000, 1.999999999999992228 ) ) ;
#284 = CIRCLE ( 'NONE', #82, 10.00000000000000000 ) ;
#285 = CARTESIAN_POINT ( 'NONE',  ( 10.00000000000000000, 1.224646799147353256E-15, 1.999999999999992228 ) ) ;
#286 = DIRECTION ( 'NONE',  ( 0.000000000000000000, 0.000000000000000000, 1.000000000000000000 ) ) ;
#287 = VERTEX_POINT ( 'NONE', #152 ) ;
#288 = ORIENTED_EDGE ( 'NONE', *, *, #250, .T. ) ;
#289 = CARTESIAN_POINT ( 'NONE',  ( 5.000000000000000000, 0.000000000000000000, 5.000000000000000000 ) ) ;
#290 = CARTESIAN_POINT ( 'NONE',  ( -5.000000000000000000, 6.123233995736766282E-16, 0.000000000000000000 ) ) ;
#291 = PERSON_AND_ORGANIZATION_ROLE ( 'design_owner' ) ;
#292 = LOCAL_TIME ( 22, 7, 12.00000000000000000, #16 ) ;
#293 = PRODUCT_DEFINITION_SHAPE ( 'NONE', 'NONE',  #24 ) ;
#294 = EDGE_CURVE ( 'NONE', #287, #210, #260, .T. ) ;
#295 = ORIENTED_EDGE ( 'NONE', *, *, #233, .F. ) ;
#296 = CALENDAR_DATE ( 2024, 16, 1 ) ;
#297 = CC_DESIGN_PERSON_AND_ORGANIZATION_ASSIGNMENT ( #257, #291, ( #67 ) ) ;
#298 = AXIS2_PLACEMENT_3D ( 'NONE', #62, #133, #71 ) ;
#299 = CIRCLE ( 'NONE', #195, 10.00000000000000000 ) ;
ENDSEC;
END-ISO-10303-21;
