ISO-10303-21;
HEADER;
/* Generated by software containing ST-Developer
 * from STEP Tools, Inc. (www.steptools.com) 
 */

FILE_DESCRIPTION(
/* description */ (''),
/* implementation_level */ '2;1');

FILE_NAME(
/* name */ 'Patin v1.step',
/* time_stamp */ '2024-01-10T21:04:47+01:00',
/* author */ (''),
/* organization */ (''),
/* preprocessor_version */ 'ST-DEVELOPER v20',
/* originating_system */ 'Autodesk Translation Framework v12.14.0.127',

/* authorisation */ '');

FILE_SCHEMA (('AUTOMOTIVE_DESIGN { 1 0 10303 214 3 1 1 }'));
ENDSEC;

DATA;
#10=MECHANICAL_DESIGN_GEOMETRIC_PRESENTATION_REPRESENTATION('',(#13),#240);
#11=SHAPE_REPRESENTATION_RELATIONSHIP('SRR','None',#247,#12);
#12=ADVANCED_BREP_SHAPE_REPRESENTATION('',(#14),#239);
#13=STYLED_ITEM('',(#256),#14);
#14=MANIFOLD_SOLID_BREP('Corps1',#129);
#15=CONICAL_SURFACE('',#160,3.14999962238887,0.78539797459185);
#16=LINE('',#213,#21);
#17=LINE('',#217,#22);
#18=LINE('',#224,#23);
#19=LINE('',#231,#24);
#20=LINE('',#236,#25);
#21=VECTOR('',#173,2.15);
#22=VECTOR('',#178,6.5);
#23=VECTOR('',#187,3.9);
#24=VECTOR('',#196,6.5);
#25=VECTOR('',#203,3.14999962238887);
#26=CYLINDRICAL_SURFACE('',#146,2.15);
#27=CYLINDRICAL_SURFACE('',#148,6.5);
#28=CYLINDRICAL_SURFACE('',#152,3.9);
#29=CYLINDRICAL_SURFACE('',#156,6.5);
#30=FACE_BOUND('',#44,.T.);
#31=FACE_BOUND('',#48,.T.);
#32=FACE_BOUND('',#51,.T.);
#33=FACE_BOUND('',#54,.T.);
#34=FACE_OUTER_BOUND('',#43,.T.);
#35=FACE_OUTER_BOUND('',#45,.T.);
#36=FACE_OUTER_BOUND('',#46,.T.);
#37=FACE_OUTER_BOUND('',#47,.T.);
#38=FACE_OUTER_BOUND('',#49,.T.);
#39=FACE_OUTER_BOUND('',#50,.T.);
#40=FACE_OUTER_BOUND('',#52,.T.);
#41=FACE_OUTER_BOUND('',#53,.T.);
#42=FACE_OUTER_BOUND('',#55,.T.);
#43=EDGE_LOOP('',(#88));
#44=EDGE_LOOP('',(#89));
#45=EDGE_LOOP('',(#90,#91,#92,#93));
#46=EDGE_LOOP('',(#94,#95,#96,#97));
#47=EDGE_LOOP('',(#98));
#48=EDGE_LOOP('',(#99));
#49=EDGE_LOOP('',(#100,#101,#102,#103));
#50=EDGE_LOOP('',(#104));
#51=EDGE_LOOP('',(#105));
#52=EDGE_LOOP('',(#106,#107,#108,#109));
#53=EDGE_LOOP('',(#110));
#54=EDGE_LOOP('',(#111));
#55=EDGE_LOOP('',(#112,#113,#114,#115));
#56=CIRCLE('',#144,6.5);
#57=CIRCLE('',#145,2.15);
#58=CIRCLE('',#147,2.15);
#59=CIRCLE('',#149,6.5);
#60=CIRCLE('',#151,3.9);
#61=CIRCLE('',#153,3.9);
#62=CIRCLE('',#155,6.5);
#63=CIRCLE('',#157,6.5);
#64=CIRCLE('',#159,4.14999924477775);
#65=VERTEX_POINT('',#206);
#66=VERTEX_POINT('',#208);
#67=VERTEX_POINT('',#211);
#68=VERTEX_POINT('',#215);
#69=VERTEX_POINT('',#219);
#70=VERTEX_POINT('',#222);
#71=VERTEX_POINT('',#226);
#72=VERTEX_POINT('',#229);
#73=VERTEX_POINT('',#233);
#74=EDGE_CURVE('',#65,#65,#56,.T.);
#75=EDGE_CURVE('',#66,#66,#57,.T.);
#76=EDGE_CURVE('',#67,#67,#58,.T.);
#77=EDGE_CURVE('',#67,#66,#16,.T.);
#78=EDGE_CURVE('',#68,#68,#59,.T.);
#79=EDGE_CURVE('',#68,#65,#17,.T.);
#80=EDGE_CURVE('',#69,#69,#60,.T.);
#81=EDGE_CURVE('',#70,#70,#61,.T.);
#82=EDGE_CURVE('',#70,#69,#18,.T.);
#83=EDGE_CURVE('',#71,#71,#62,.T.);
#84=EDGE_CURVE('',#72,#72,#63,.T.);
#85=EDGE_CURVE('',#72,#71,#19,.T.);
#86=EDGE_CURVE('',#73,#73,#64,.T.);
#87=EDGE_CURVE('',#73,#67,#20,.T.);
#88=ORIENTED_EDGE('',*,*,#74,.T.);
#89=ORIENTED_EDGE('',*,*,#75,.T.);
#90=ORIENTED_EDGE('',*,*,#76,.T.);
#91=ORIENTED_EDGE('',*,*,#77,.T.);
#92=ORIENTED_EDGE('',*,*,#75,.F.);
#93=ORIENTED_EDGE('',*,*,#77,.F.);
#94=ORIENTED_EDGE('',*,*,#78,.F.);
#95=ORIENTED_EDGE('',*,*,#79,.T.);
#96=ORIENTED_EDGE('',*,*,#74,.F.);
#97=ORIENTED_EDGE('',*,*,#79,.F.);
#98=ORIENTED_EDGE('',*,*,#78,.T.);
#99=ORIENTED_EDGE('',*,*,#80,.F.);
#100=ORIENTED_EDGE('',*,*,#81,.F.);
#101=ORIENTED_EDGE('',*,*,#82,.T.);
#102=ORIENTED_EDGE('',*,*,#80,.T.);
#103=ORIENTED_EDGE('',*,*,#82,.F.);
#104=ORIENTED_EDGE('',*,*,#83,.F.);
#105=ORIENTED_EDGE('',*,*,#81,.T.);
#106=ORIENTED_EDGE('',*,*,#84,.F.);
#107=ORIENTED_EDGE('',*,*,#85,.T.);
#108=ORIENTED_EDGE('',*,*,#83,.T.);
#109=ORIENTED_EDGE('',*,*,#85,.F.);
#110=ORIENTED_EDGE('',*,*,#84,.T.);
#111=ORIENTED_EDGE('',*,*,#86,.F.);
#112=ORIENTED_EDGE('',*,*,#86,.T.);
#113=ORIENTED_EDGE('',*,*,#87,.T.);
#114=ORIENTED_EDGE('',*,*,#76,.F.);
#115=ORIENTED_EDGE('',*,*,#87,.F.);
#116=PLANE('',#143);
#117=PLANE('',#150);
#118=PLANE('',#154);
#119=PLANE('',#158);
#120=ADVANCED_FACE('',(#34,#30),#116,.T.);
#121=ADVANCED_FACE('',(#35),#26,.F.);
#122=ADVANCED_FACE('',(#36),#27,.T.);
#123=ADVANCED_FACE('',(#37,#31),#117,.T.);
#124=ADVANCED_FACE('',(#38),#28,.T.);
#125=ADVANCED_FACE('',(#39,#32),#118,.T.);
#126=ADVANCED_FACE('',(#40),#29,.T.);
#127=ADVANCED_FACE('',(#41,#33),#119,.T.);
#128=ADVANCED_FACE('',(#42),#15,.F.);
#129=CLOSED_SHELL('',(#120,#121,#122,#123,#124,#125,#126,#127,#128));
#130=DERIVED_UNIT_ELEMENT(#132,1.);
#131=DERIVED_UNIT_ELEMENT(#242,-3.);
#132=(
MASS_UNIT()
NAMED_UNIT(*)
SI_UNIT(.KILO.,.GRAM.)
);
#133=DERIVED_UNIT((#130,#131));
#134=MEASURE_REPRESENTATION_ITEM('density measure',
POSITIVE_RATIO_MEASURE(7850.),#133);
#135=PROPERTY_DEFINITION_REPRESENTATION(#140,#137);
#136=PROPERTY_DEFINITION_REPRESENTATION(#141,#138);
#137=REPRESENTATION('material name',(#139),#239);
#138=REPRESENTATION('density',(#134),#239);
#139=DESCRIPTIVE_REPRESENTATION_ITEM('Acier','Acier');
#140=PROPERTY_DEFINITION('material property','material name',#249);
#141=PROPERTY_DEFINITION('material property','density of part',#249);
#142=AXIS2_PLACEMENT_3D('',#204,#161,#162);
#143=AXIS2_PLACEMENT_3D('',#205,#163,#164);
#144=AXIS2_PLACEMENT_3D('',#207,#165,#166);
#145=AXIS2_PLACEMENT_3D('',#209,#167,#168);
#146=AXIS2_PLACEMENT_3D('',#210,#169,#170);
#147=AXIS2_PLACEMENT_3D('',#212,#171,#172);
#148=AXIS2_PLACEMENT_3D('',#214,#174,#175);
#149=AXIS2_PLACEMENT_3D('',#216,#176,#177);
#150=AXIS2_PLACEMENT_3D('',#218,#179,#180);
#151=AXIS2_PLACEMENT_3D('',#220,#181,#182);
#152=AXIS2_PLACEMENT_3D('',#221,#183,#184);
#153=AXIS2_PLACEMENT_3D('',#223,#185,#186);
#154=AXIS2_PLACEMENT_3D('',#225,#188,#189);
#155=AXIS2_PLACEMENT_3D('',#227,#190,#191);
#156=AXIS2_PLACEMENT_3D('',#228,#192,#193);
#157=AXIS2_PLACEMENT_3D('',#230,#194,#195);
#158=AXIS2_PLACEMENT_3D('',#232,#197,#198);
#159=AXIS2_PLACEMENT_3D('',#234,#199,#200);
#160=AXIS2_PLACEMENT_3D('',#235,#201,#202);
#161=DIRECTION('axis',(0.,0.,1.));
#162=DIRECTION('refdir',(1.,0.,0.));
#163=DIRECTION('center_axis',(0.,-1.,0.));
#164=DIRECTION('ref_axis',(0.,0.,-1.));
#165=DIRECTION('center_axis',(0.,-1.,0.));
#166=DIRECTION('ref_axis',(1.,0.,0.));
#167=DIRECTION('center_axis',(0.,1.,0.));
#168=DIRECTION('ref_axis',(1.,0.,0.));
#169=DIRECTION('center_axis',(0.,1.,0.));
#170=DIRECTION('ref_axis',(0.,0.,1.));
#171=DIRECTION('center_axis',(0.,1.,0.));
#172=DIRECTION('ref_axis',(1.,0.,0.));
#173=DIRECTION('',(0.,-1.,0.));
#174=DIRECTION('center_axis',(0.,1.,0.));
#175=DIRECTION('ref_axis',(0.,0.,1.));
#176=DIRECTION('center_axis',(0.,1.,0.));
#177=DIRECTION('ref_axis',(1.,0.,0.));
#178=DIRECTION('',(0.,-1.,0.));
#179=DIRECTION('center_axis',(0.,1.,0.));
#180=DIRECTION('ref_axis',(0.,0.,1.));
#181=DIRECTION('center_axis',(0.,1.,0.));
#182=DIRECTION('ref_axis',(1.,0.,0.));
#183=DIRECTION('center_axis',(0.,1.,0.));
#184=DIRECTION('ref_axis',(0.,0.,1.));
#185=DIRECTION('center_axis',(0.,1.,0.));
#186=DIRECTION('ref_axis',(1.,0.,0.));
#187=DIRECTION('',(0.,-1.,0.));
#188=DIRECTION('center_axis',(0.,-1.,0.));
#189=DIRECTION('ref_axis',(0.,0.,-1.));
#190=DIRECTION('center_axis',(0.,1.,0.));
#191=DIRECTION('ref_axis',(1.,0.,0.));
#192=DIRECTION('center_axis',(0.,1.,0.));
#193=DIRECTION('ref_axis',(0.,0.,1.));
#194=DIRECTION('center_axis',(0.,1.,0.));
#195=DIRECTION('ref_axis',(1.,0.,0.));
#196=DIRECTION('',(0.,-1.,0.));
#197=DIRECTION('center_axis',(0.,1.,0.));
#198=DIRECTION('ref_axis',(0.,0.,1.));
#199=DIRECTION('center_axis',(0.,1.,0.));
#200=DIRECTION('ref_axis',(1.,0.,0.));
#201=DIRECTION('center_axis',(0.,1.,0.));
#202=DIRECTION('ref_axis',(0.,0.,1.));
#203=DIRECTION('',(8.65955892738126E-17,-0.707106914692254,0.707106647680816));
#204=CARTESIAN_POINT('',(0.,0.,0.));
#205=CARTESIAN_POINT('Origin',(0.,-2.5,6.5));
#206=CARTESIAN_POINT('',(-7.9602041944578E-16,-2.5,-6.5));
#207=CARTESIAN_POINT('Origin',(0.,-2.5,0.));
#208=CARTESIAN_POINT('',(-2.63299061816681E-16,-2.5,-2.15));
#209=CARTESIAN_POINT('Origin',(0.,-2.5,0.));
#210=CARTESIAN_POINT('Origin',(0.,4.5,0.));
#211=CARTESIAN_POINT('',(-2.63299061816681E-16,9.,-2.15));
#212=CARTESIAN_POINT('Origin',(0.,9.,0.));
#213=CARTESIAN_POINT('',(-2.63299061816681E-16,4.5,-2.15));
#214=CARTESIAN_POINT('Origin',(0.,1.575,0.));
#215=CARTESIAN_POINT('',(-7.9602041944578E-16,3.15,-6.5));
#216=CARTESIAN_POINT('Origin',(0.,3.15,0.));
#217=CARTESIAN_POINT('',(-7.9602041944578E-16,1.575,-6.5));
#218=CARTESIAN_POINT('Origin',(0.,3.15,3.9));
#219=CARTESIAN_POINT('',(-4.77612251667468E-16,3.15,-3.9));
#220=CARTESIAN_POINT('Origin',(0.,3.15,0.));
#221=CARTESIAN_POINT('Origin',(0.,5.5,0.));
#222=CARTESIAN_POINT('',(-4.77612251667468E-16,7.85,-3.9));
#223=CARTESIAN_POINT('Origin',(0.,7.85,0.));
#224=CARTESIAN_POINT('',(-4.77612251667468E-16,5.5,-3.9));
#225=CARTESIAN_POINT('Origin',(0.,7.85,6.5));
#226=CARTESIAN_POINT('',(-7.9602041944578E-16,7.85,-6.5));
#227=CARTESIAN_POINT('Origin',(0.,7.85,0.));
#228=CARTESIAN_POINT('Origin',(0.,9.425,0.));
#229=CARTESIAN_POINT('',(-7.9602041944578E-16,11.,-6.5));
#230=CARTESIAN_POINT('Origin',(0.,11.,0.));
#231=CARTESIAN_POINT('',(-7.9602041944578E-16,9.425,-6.5));
#232=CARTESIAN_POINT('Origin',(0.,11.,4.14999924477775));
#233=CARTESIAN_POINT('',(-5.08228329158101E-16,11.,-4.14999924477775));
#234=CARTESIAN_POINT('Origin',(0.,11.,0.));
#235=CARTESIAN_POINT('Origin',(0.,10.,0.));
#236=CARTESIAN_POINT('',(-3.85763695487391E-16,10.,-3.14999962238887));
#237=UNCERTAINTY_MEASURE_WITH_UNIT(LENGTH_MEASURE(0.01),#241,
'DISTANCE_ACCURACY_VALUE',
'Maximum model space distance between geometric entities at asserted c
onnectivities');
#238=UNCERTAINTY_MEASURE_WITH_UNIT(LENGTH_MEASURE(0.01),#241,
'DISTANCE_ACCURACY_VALUE',
'Maximum model space distance between geometric entities at asserted c
onnectivities');
#239=(
GEOMETRIC_REPRESENTATION_CONTEXT(3)
GLOBAL_UNCERTAINTY_ASSIGNED_CONTEXT((#237))
GLOBAL_UNIT_ASSIGNED_CONTEXT((#241,#243,#244))
REPRESENTATION_CONTEXT('','3D')
);
#240=(
GEOMETRIC_REPRESENTATION_CONTEXT(3)
GLOBAL_UNCERTAINTY_ASSIGNED_CONTEXT((#238))
GLOBAL_UNIT_ASSIGNED_CONTEXT((#241,#243,#244))
REPRESENTATION_CONTEXT('','3D')
);
#241=(
LENGTH_UNIT()
NAMED_UNIT(*)
SI_UNIT(.MILLI.,.METRE.)
);
#242=(
LENGTH_UNIT()
NAMED_UNIT(*)
SI_UNIT($,.METRE.)
);
#243=(
NAMED_UNIT(*)
PLANE_ANGLE_UNIT()
SI_UNIT($,.RADIAN.)
);
#244=(
NAMED_UNIT(*)
SI_UNIT($,.STERADIAN.)
SOLID_ANGLE_UNIT()
);
#245=SHAPE_DEFINITION_REPRESENTATION(#246,#247);
#246=PRODUCT_DEFINITION_SHAPE('',$,#249);
#247=SHAPE_REPRESENTATION('',(#142),#239);
#248=PRODUCT_DEFINITION_CONTEXT('part definition',#253,'design');
#249=PRODUCT_DEFINITION('Patin','Patin v1',#250,#248);
#250=PRODUCT_DEFINITION_FORMATION('',$,#255);
#251=PRODUCT_RELATED_PRODUCT_CATEGORY('Patin v1','Patin v1',(#255));
#252=APPLICATION_PROTOCOL_DEFINITION('international standard',
'automotive_design',2009,#253);
#253=APPLICATION_CONTEXT(
'Core Data for Automotive Mechanical Design Process');
#254=PRODUCT_CONTEXT('part definition',#253,'mechanical');
#255=PRODUCT('Patin','Patin v1',$,(#254));
#256=PRESENTATION_STYLE_ASSIGNMENT((#257));
#257=SURFACE_STYLE_USAGE(.BOTH.,#258);
#258=SURFACE_SIDE_STYLE('',(#259));
#259=SURFACE_STYLE_FILL_AREA(#260);
#260=FILL_AREA_STYLE('Acier - Satin\X\E9',(#261));
#261=FILL_AREA_STYLE_COLOUR('Acier - Satin\X\E9',#262);
#262=COLOUR_RGB('Acier - Satin\X\E9',0.627450980392157,0.627450980392157,
0.627450980392157);
ENDSEC;
END-ISO-10303-21;
