ISO-10303-21;
HEADER;
FILE_DESCRIPTION(('CATIA V5 STEP Exchange'),'2;1');

FILE_NAME('C:\\Documents and Settings\\MOI\\Bureau\\mitsu\\rondelle tete.stp','2024-02-25T10:24:02+00:00',('none'),('none'),'CATIA Version 5 Release 19 SP 2 (IN-10)','CATIA V5 STEP AP203','none');

FILE_SCHEMA(('CONFIG_CONTROL_DESIGN'));

ENDSEC;
/* file written by CATIA V5R19 */
DATA;
#5=PRODUCT('Part3','','',(#2)) ;
#1=APPLICATION_CONTEXT('configuration controlled 3D design of mechanical parts and assemblies') ;
#14=PRODUCT_DEFINITION('',' ',#6,#3) ;
#16=SECURITY_CLASSIFICATION(' ',' ',#15) ;
#15=SECURITY_CLASSIFICATION_LEVEL('unclassified') ;
#47=CARTESIAN_POINT(' ',(0.,0.,0.)) ;
#52=CARTESIAN_POINT('Axis2P3D Location',(0.,0.,1.5)) ;
#57=CARTESIAN_POINT('Line Origine',(18.,0.,1.5)) ;
#61=CARTESIAN_POINT('Vertex',(18.,0.,0.)) ;
#63=CARTESIAN_POINT('Vertex',(18.,0.,3.)) ;
#66=CARTESIAN_POINT('Axis2P3D Location',(0.,0.,0.)) ;
#70=CARTESIAN_POINT('Vertex',(-18.,2.20429143688E-015,0.)) ;
#73=CARTESIAN_POINT('Line Origine',(-18.,2.20429143688E-015,1.5)) ;
#77=CARTESIAN_POINT('Vertex',(-18.,2.20429143688E-015,3.)) ;
#80=CARTESIAN_POINT('Axis2P3D Location',(0.,0.,3.)) ;
#92=CARTESIAN_POINT('Axis2P3D Location',(0.,0.,0.)) ;
#97=CARTESIAN_POINT('Axis2P3D Location',(0.,0.,3.)) ;
#109=CARTESIAN_POINT('Axis2P3D Location',(0.,0.,1.5)) ;
#114=CARTESIAN_POINT('Axis2P3D Location',(0.,0.,3.)) ;
#118=CARTESIAN_POINT('Vertex',(-15.,8.49824767848E-015,3.)) ;
#120=CARTESIAN_POINT('Vertex',(15.,0.,3.)) ;
#123=CARTESIAN_POINT('Line Origine',(15.,-1.6996495357E-014,1.5)) ;
#127=CARTESIAN_POINT('Vertex',(15.,0.,0.)) ;
#130=CARTESIAN_POINT('Axis2P3D Location',(0.,0.,0.)) ;
#134=CARTESIAN_POINT('Vertex',(-15.,8.49824767848E-015,0.)) ;
#137=CARTESIAN_POINT('Line Origine',(-15.,8.49824767848E-015,1.5)) ;
#149=CARTESIAN_POINT('Axis2P3D Location',(0.,0.,3.)) ;
#154=CARTESIAN_POINT('Axis2P3D Location',(0.,0.,0.)) ;
#166=CARTESIAN_POINT('Axis2P3D Location',(0.,0.,0.)) ;
#180=CARTESIAN_POINT('Axis2P3D Location',(0.,0.,3.)) ;
#53=DIRECTION('Axis2P3D Direction',(0.,0.,1.)) ;
#54=DIRECTION('Axis2P3D XDirection',(-1.,1.22464679915E-016,0.)) ;
#58=DIRECTION('Vector Direction',(0.,0.,1.)) ;
#67=DIRECTION('Axis2P3D Direction',(0.,0.,1.)) ;
#74=DIRECTION('Vector Direction',(0.,0.,1.)) ;
#81=DIRECTION('Axis2P3D Direction',(0.,0.,1.)) ;
#93=DIRECTION('Axis2P3D Direction',(0.,0.,1.)) ;
#98=DIRECTION('Axis2P3D Direction',(0.,0.,1.)) ;
#110=DIRECTION('Axis2P3D Direction',(0.,0.,1.)) ;
#111=DIRECTION('Axis2P3D XDirection',(1.,0.,0.)) ;
#115=DIRECTION('Axis2P3D Direction',(0.,0.,1.)) ;
#124=DIRECTION('Vector Direction',(0.,0.,1.)) ;
#131=DIRECTION('Axis2P3D Direction',(0.,0.,1.)) ;
#138=DIRECTION('Vector Direction',(0.,0.,1.)) ;
#150=DIRECTION('Axis2P3D Direction',(0.,0.,1.)) ;
#155=DIRECTION('Axis2P3D Direction',(0.,0.,1.)) ;
#167=DIRECTION('Axis2P3D Direction',(0.,0.,1.)) ;
#168=DIRECTION('Axis2P3D XDirection',(1.,0.,0.)) ;
#181=DIRECTION('Axis2P3D Direction',(0.,0.,1.)) ;
#182=DIRECTION('Axis2P3D XDirection',(1.,0.,0.)) ;
#48=AXIS2_PLACEMENT_3D(' ',#47,$,$) ;
#55=AXIS2_PLACEMENT_3D('Cylinder Axis2P3D',#52,#53,#54) ;
#68=AXIS2_PLACEMENT_3D('Circle Axis2P3D',#66,#67,$) ;
#82=AXIS2_PLACEMENT_3D('Circle Axis2P3D',#80,#81,$) ;
#94=AXIS2_PLACEMENT_3D('Circle Axis2P3D',#92,#93,$) ;
#99=AXIS2_PLACEMENT_3D('Circle Axis2P3D',#97,#98,$) ;
#112=AXIS2_PLACEMENT_3D('Cylinder Axis2P3D',#109,#110,#111) ;
#116=AXIS2_PLACEMENT_3D('Circle Axis2P3D',#114,#115,$) ;
#132=AXIS2_PLACEMENT_3D('Circle Axis2P3D',#130,#131,$) ;
#151=AXIS2_PLACEMENT_3D('Circle Axis2P3D',#149,#150,$) ;
#156=AXIS2_PLACEMENT_3D('Circle Axis2P3D',#154,#155,$) ;
#169=AXIS2_PLACEMENT_3D('Plane Axis2P3D',#166,#167,#168) ;
#183=AXIS2_PLACEMENT_3D('Plane Axis2P3D',#180,#181,#182) ;
#40=PRODUCT_DEFINITION_SHAPE(' ',' ',#14) ;
#31=APPROVAL_PERSON_ORGANIZATION(#25,#21,#19) ;
#25=PERSON_AND_ORGANIZATION(#22,#23) ;
#22=PERSON(' ',' ',' ',$,$,$) ;
#23=ORGANIZATION(' ',' ',' ') ;
#21=APPROVAL(#20,' ') ;
#20=APPROVAL_STATUS('not_yet_approved') ;
#19=APPROVAL_ROLE('APPROVER') ;
#13=DATE_AND_TIME(#11,#12) ;
#12=LOCAL_TIME(11,24,1.,#10) ;
#10=COORDINATED_UNIVERSAL_TIME_OFFSET(0,0,.AHEAD.) ;
#86=ORIENTED_EDGE('',*,*,#65,.F.) ;
#87=ORIENTED_EDGE('',*,*,#72,.T.) ;
#88=ORIENTED_EDGE('',*,*,#79,.T.) ;
#89=ORIENTED_EDGE('',*,*,#84,.F.) ;
#103=ORIENTED_EDGE('',*,*,#79,.F.) ;
#104=ORIENTED_EDGE('',*,*,#96,.T.) ;
#105=ORIENTED_EDGE('',*,*,#65,.T.) ;
#106=ORIENTED_EDGE('',*,*,#101,.F.) ;
#143=ORIENTED_EDGE('',*,*,#122,.T.) ;
#144=ORIENTED_EDGE('',*,*,#129,.F.) ;
#145=ORIENTED_EDGE('',*,*,#136,.F.) ;
#146=ORIENTED_EDGE('',*,*,#141,.T.) ;
#160=ORIENTED_EDGE('',*,*,#153,.T.) ;
#161=ORIENTED_EDGE('',*,*,#141,.F.) ;
#162=ORIENTED_EDGE('',*,*,#158,.F.) ;
#163=ORIENTED_EDGE('',*,*,#129,.T.) ;
#172=ORIENTED_EDGE('',*,*,#96,.F.) ;
#173=ORIENTED_EDGE('',*,*,#72,.F.) ;
#176=ORIENTED_EDGE('',*,*,#158,.T.) ;
#177=ORIENTED_EDGE('',*,*,#136,.T.) ;
#186=ORIENTED_EDGE('',*,*,#84,.T.) ;
#187=ORIENTED_EDGE('',*,*,#101,.T.) ;
#190=ORIENTED_EDGE('',*,*,#122,.F.) ;
#191=ORIENTED_EDGE('',*,*,#153,.F.) ;
#178=FACE_BOUND('',#175,.T.) ;
#192=FACE_BOUND('',#189,.T.) ;
#51=CLOSED_SHELL('Closed Shell',(#91,#108,#148,#165,#179,#193)) ;
#59=VECTOR('Line Direction',#58,1.) ;
#75=VECTOR('Line Direction',#74,1.) ;
#125=VECTOR('Line Direction',#124,1.) ;
#139=VECTOR('Line Direction',#138,1.) ;
#195=ADVANCED_BREP_SHAPE_REPRESENTATION('NONE',(#194),#46) ;
#49=SHAPE_REPRESENTATION(' ',(#48),#46) ;
#91=ADVANCED_FACE('Corps principal',(#90),#56,.T.) ;
#108=ADVANCED_FACE('Corps principal',(#107),#56,.T.) ;
#148=ADVANCED_FACE('Corps principal',(#147),#113,.F.) ;
#165=ADVANCED_FACE('Corps principal',(#164),#113,.F.) ;
#179=ADVANCED_FACE('Corps principal',(#174,#178),#170,.F.) ;
#193=ADVANCED_FACE('Corps principal',(#188,#192),#184,.T.) ;
#4=APPLICATION_PROTOCOL_DEFINITION('international standard','config_control_design',1994,#1) ;
#32=APPROVAL_DATE_TIME(#13,#21) ;
#194=MANIFOLD_SOLID_BREP('Corps principal',#51) ;
#11=CALENDAR_DATE(2024,25,2) ;
#30=CC_DESIGN_APPROVAL(#21,(#16,#6,#14)) ;
#18=CC_DESIGN_DATE_AND_TIME_ASSIGNMENT(#13,#17,(#16)) ;
#29=CC_DESIGN_DATE_AND_TIME_ASSIGNMENT(#13,#28,(#14)) ;
#17=DATE_TIME_ROLE('classification_date') ;
#28=DATE_TIME_ROLE('creation_date') ;
#27=CC_DESIGN_PERSON_AND_ORGANIZATION_ASSIGNMENT(#25,#26,(#16)) ;
#33=CC_DESIGN_PERSON_AND_ORGANIZATION_ASSIGNMENT(#25,#34,(#6)) ;
#35=CC_DESIGN_PERSON_AND_ORGANIZATION_ASSIGNMENT(#25,#36,(#6,#14)) ;
#37=CC_DESIGN_PERSON_AND_ORGANIZATION_ASSIGNMENT(#25,#38,(#5)) ;
#26=PERSON_AND_ORGANIZATION_ROLE('classification_officer') ;
#34=PERSON_AND_ORGANIZATION_ROLE('design_supplier') ;
#36=PERSON_AND_ORGANIZATION_ROLE('creator') ;
#38=PERSON_AND_ORGANIZATION_ROLE('design_owner') ;
#39=CC_DESIGN_SECURITY_CLASSIFICATION(#16,(#6)) ;
#69=CIRCLE('generated circle',#68,18.) ;
#83=CIRCLE('generated circle',#82,18.) ;
#95=CIRCLE('generated circle',#94,18.) ;
#100=CIRCLE('generated circle',#99,18.) ;
#117=CIRCLE('generated circle',#116,15.) ;
#133=CIRCLE('generated circle',#132,15.) ;
#152=CIRCLE('generated circle',#151,15.) ;
#157=CIRCLE('generated circle',#156,15.) ;
#196=SHAPE_REPRESENTATION_RELATIONSHIP(' ',' ',#49,#195) ;
#56=CYLINDRICAL_SURFACE('generated cylinder',#55,18.) ;
#113=CYLINDRICAL_SURFACE('generated cylinder',#112,15.) ;
#3=DESIGN_CONTEXT(' ',#1,'design') ;
#65=EDGE_CURVE('',#62,#64,#60,.T.) ;
#72=EDGE_CURVE('',#62,#71,#69,.T.) ;
#79=EDGE_CURVE('',#71,#78,#76,.T.) ;
#84=EDGE_CURVE('',#64,#78,#83,.T.) ;
#96=EDGE_CURVE('',#71,#62,#95,.T.) ;
#101=EDGE_CURVE('',#78,#64,#100,.T.) ;
#122=EDGE_CURVE('',#119,#121,#117,.T.) ;
#129=EDGE_CURVE('',#128,#121,#126,.T.) ;
#136=EDGE_CURVE('',#135,#128,#133,.T.) ;
#141=EDGE_CURVE('',#135,#119,#140,.T.) ;
#153=EDGE_CURVE('',#121,#119,#152,.T.) ;
#158=EDGE_CURVE('',#128,#135,#157,.T.) ;
#85=EDGE_LOOP('',(#86,#87,#88,#89)) ;
#102=EDGE_LOOP('',(#103,#104,#105,#106)) ;
#142=EDGE_LOOP('',(#143,#144,#145,#146)) ;
#159=EDGE_LOOP('',(#160,#161,#162,#163)) ;
#171=EDGE_LOOP('',(#172,#173)) ;
#175=EDGE_LOOP('',(#176,#177)) ;
#185=EDGE_LOOP('',(#186,#187)) ;
#189=EDGE_LOOP('',(#190,#191)) ;
#90=FACE_OUTER_BOUND('',#85,.T.) ;
#107=FACE_OUTER_BOUND('',#102,.T.) ;
#147=FACE_OUTER_BOUND('',#142,.T.) ;
#164=FACE_OUTER_BOUND('',#159,.T.) ;
#174=FACE_OUTER_BOUND('',#171,.T.) ;
#188=FACE_OUTER_BOUND('',#185,.T.) ;
#45=UNCERTAINTY_MEASURE_WITH_UNIT(LENGTH_MEASURE(0.005),#41,'distance_accuracy_value','CONFUSED CURVE UNCERTAINTY') ;
#60=LINE('Line',#57,#59) ;
#76=LINE('Line',#73,#75) ;
#126=LINE('Line',#123,#125) ;
#140=LINE('Line',#137,#139) ;
#2=MECHANICAL_CONTEXT(' ',#1,'mechanical') ;
#24=PERSONAL_ADDRESS(' ',' ',' ',' ',' ',' ',' ',' ',' ',' ',' ',' ',(#22),' ') ;
#170=PLANE('Plane',#169) ;
#184=PLANE('Plane',#183) ;
#43=PLANE_ANGLE_MEASURE_WITH_UNIT(PLANE_ANGLE_MEASURE(0.0174532925199),#42) ;
#7=PRODUCT_CATEGORY('part',$) ;
#9=PRODUCT_CATEGORY_RELATIONSHIP(' ',' ',#7,#8) ;
#6=PRODUCT_DEFINITION_FORMATION_WITH_SPECIFIED_SOURCE('',' ',#5,.NOT_KNOWN.) ;
#8=PRODUCT_RELATED_PRODUCT_CATEGORY('detail',$,(#5)) ;
#50=SHAPE_DEFINITION_REPRESENTATION(#40,#49) ;
#62=VERTEX_POINT('',#61) ;
#64=VERTEX_POINT('',#63) ;
#71=VERTEX_POINT('',#70) ;
#78=VERTEX_POINT('',#77) ;
#119=VERTEX_POINT('',#118) ;
#121=VERTEX_POINT('',#120) ;
#128=VERTEX_POINT('',#127) ;
#135=VERTEX_POINT('',#134) ;
#41=(LENGTH_UNIT()NAMED_UNIT(*)SI_UNIT(.MILLI.,.METRE.)) ;
#42=(NAMED_UNIT(*)PLANE_ANGLE_UNIT()SI_UNIT($,.RADIAN.)) ;
#44=(NAMED_UNIT(*)SI_UNIT($,.STERADIAN.)SOLID_ANGLE_UNIT()) ;
#46=(GEOMETRIC_REPRESENTATION_CONTEXT(3)GLOBAL_UNCERTAINTY_ASSIGNED_CONTEXT((#45))GLOBAL_UNIT_ASSIGNED_CONTEXT((#41,#42,#44))REPRESENTATION_CONTEXT(' ',' ')) ;
ENDSEC;
END-ISO-10303-21;
