ISO-10303-21;
HEADER;
FILE_DESCRIPTION(('CATIA V5 STEP Exchange'),'2;1');

FILE_NAME('C:\\Users\\rlevecqu\\Documents\\rondelle nylon.stp','2024-02-16T13:30:42+00:00',('none'),('none'),'CATIA Version 5 Release 19 SP 9 (IN-10)','CATIA V5 STEP AP203','none');

FILE_SCHEMA(('CONFIG_CONTROL_DESIGN'));

ENDSEC;
/* file written by CATIA V5R19 */
DATA;
#5=PRODUCT('Part1','','',(#2)) ;
#1=APPLICATION_CONTEXT('configuration controlled 3D design of mechanical parts and assemblies') ;
#14=PRODUCT_DEFINITION('',' ',#6,#3) ;
#16=SECURITY_CLASSIFICATION(' ',' ',#15) ;
#15=SECURITY_CLASSIFICATION_LEVEL('unclassified') ;
#47=CARTESIAN_POINT(' ',(0.,0.,0.)) ;
#52=CARTESIAN_POINT('Axis2P3D Location',(-0.1,0.,0.)) ;
#57=CARTESIAN_POINT('Line Origine',(-4.84499999998,-13.1637384284,7.19138307906)) ;
#61=CARTESIAN_POINT('Vertex',(-3.,-13.1637384284,7.19138307906)) ;
#63=CARTESIAN_POINT('Vertex',(-3.60822483003E-016,-13.1637384284,7.19138307906)) ;
#66=CARTESIAN_POINT('Axis2P3D Location',(-3.,0.,0.)) ;
#70=CARTESIAN_POINT('Vertex',(-3.,13.1637384284,-7.19138307906)) ;
#73=CARTESIAN_POINT('Line Origine',(-4.84499999998,13.1637384284,-7.19138307906)) ;
#77=CARTESIAN_POINT('Vertex',(-3.60822483003E-016,13.1637384284,-7.19138307906)) ;
#80=CARTESIAN_POINT('Axis2P3D Location',(0.,0.,0.)) ;
#92=CARTESIAN_POINT('Axis2P3D Location',(0.,0.,0.)) ;
#97=CARTESIAN_POINT('Axis2P3D Location',(0.,0.,0.)) ;
#101=CARTESIAN_POINT('Vertex',(0.,25.,0.)) ;
#103=CARTESIAN_POINT('Vertex',(0.,-25.,3.06161699787E-015)) ;
#106=CARTESIAN_POINT('Axis2P3D Location',(0.,0.,0.)) ;
#115=CARTESIAN_POINT('Axis2P3D Location',(0.,8.881784197E-016,-5.3290705182E-015)) ;
#125=CARTESIAN_POINT('Axis2P3D Location',(-3.,0.,0.)) ;
#137=CARTESIAN_POINT('Axis2P3D Location',(-1.5,0.,0.)) ;
#142=CARTESIAN_POINT('Axis2P3D Location',(-3.,0.,0.)) ;
#146=CARTESIAN_POINT('Vertex',(-3.,25.,0.)) ;
#148=CARTESIAN_POINT('Vertex',(-3.,-25.,3.06161699787E-015)) ;
#151=CARTESIAN_POINT('Line Origine',(-1.5,-25.,3.06161699787E-015)) ;
#156=CARTESIAN_POINT('Line Origine',(-1.5,25.,0.)) ;
#168=CARTESIAN_POINT('Axis2P3D Location',(-3.,0.,0.)) ;
#180=CARTESIAN_POINT('Axis2P3D Location',(-3.,0.,0.)) ;
#53=DIRECTION('Axis2P3D Direction',(-1.,0.,-0.)) ;
#54=DIRECTION('Axis2P3D XDirection',(0.,0.87758256189,-0.479425538604)) ;
#58=DIRECTION('Vector Direction',(-1.,0.,0.)) ;
#67=DIRECTION('Axis2P3D Direction',(-1.,0.,-0.)) ;
#74=DIRECTION('Vector Direction',(-1.,0.,0.)) ;
#81=DIRECTION('Axis2P3D Direction',(-1.,0.,-0.)) ;
#93=DIRECTION('Axis2P3D Direction',(1.,0.,0.)) ;
#94=DIRECTION('Axis2P3D XDirection',(0.,1.,0.)) ;
#98=DIRECTION('Axis2P3D Direction',(1.,0.,0.)) ;
#107=DIRECTION('Axis2P3D Direction',(1.,0.,0.)) ;
#116=DIRECTION('Axis2P3D Direction',(1.,0.,0.)) ;
#126=DIRECTION('Axis2P3D Direction',(-1.,0.,-0.)) ;
#138=DIRECTION('Axis2P3D Direction',(1.,0.,0.)) ;
#139=DIRECTION('Axis2P3D XDirection',(0.,1.,0.)) ;
#143=DIRECTION('Axis2P3D Direction',(1.,0.,0.)) ;
#152=DIRECTION('Vector Direction',(1.,0.,0.)) ;
#157=DIRECTION('Vector Direction',(1.,0.,0.)) ;
#169=DIRECTION('Axis2P3D Direction',(1.,0.,0.)) ;
#181=DIRECTION('Axis2P3D Direction',(1.,0.,0.)) ;
#182=DIRECTION('Axis2P3D XDirection',(0.,1.,0.)) ;
#48=AXIS2_PLACEMENT_3D(' ',#47,$,$) ;
#55=AXIS2_PLACEMENT_3D('Cylinder Axis2P3D',#52,#53,#54) ;
#68=AXIS2_PLACEMENT_3D('Circle Axis2P3D',#66,#67,$) ;
#82=AXIS2_PLACEMENT_3D('Circle Axis2P3D',#80,#81,$) ;
#95=AXIS2_PLACEMENT_3D('Plane Axis2P3D',#92,#93,#94) ;
#99=AXIS2_PLACEMENT_3D('Circle Axis2P3D',#97,#98,$) ;
#108=AXIS2_PLACEMENT_3D('Circle Axis2P3D',#106,#107,$) ;
#117=AXIS2_PLACEMENT_3D('Circle Axis2P3D',#115,#116,$) ;
#127=AXIS2_PLACEMENT_3D('Circle Axis2P3D',#125,#126,$) ;
#140=AXIS2_PLACEMENT_3D('Cylinder Axis2P3D',#137,#138,#139) ;
#144=AXIS2_PLACEMENT_3D('Circle Axis2P3D',#142,#143,$) ;
#170=AXIS2_PLACEMENT_3D('Circle Axis2P3D',#168,#169,$) ;
#183=AXIS2_PLACEMENT_3D('Plane Axis2P3D',#180,#181,#182) ;
#40=PRODUCT_DEFINITION_SHAPE(' ',' ',#14) ;
#31=APPROVAL_PERSON_ORGANIZATION(#25,#21,#19) ;
#25=PERSON_AND_ORGANIZATION(#22,#23) ;
#22=PERSON(' ',' ',' ',$,$,$) ;
#23=ORGANIZATION(' ',' ',' ') ;
#21=APPROVAL(#20,' ') ;
#20=APPROVAL_STATUS('not_yet_approved') ;
#19=APPROVAL_ROLE('APPROVER') ;
#13=DATE_AND_TIME(#11,#12) ;
#12=LOCAL_TIME(14,30,42.,#10) ;
#10=COORDINATED_UNIVERSAL_TIME_OFFSET(0,0,.AHEAD.) ;
#86=ORIENTED_EDGE('',*,*,#65,.F.) ;
#87=ORIENTED_EDGE('',*,*,#72,.F.) ;
#88=ORIENTED_EDGE('',*,*,#79,.T.) ;
#89=ORIENTED_EDGE('',*,*,#84,.T.) ;
#112=ORIENTED_EDGE('',*,*,#105,.T.) ;
#113=ORIENTED_EDGE('',*,*,#110,.T.) ;
#121=ORIENTED_EDGE('',*,*,#119,.F.) ;
#122=ORIENTED_EDGE('',*,*,#84,.F.) ;
#131=ORIENTED_EDGE('',*,*,#79,.F.) ;
#132=ORIENTED_EDGE('',*,*,#129,.F.) ;
#133=ORIENTED_EDGE('',*,*,#65,.T.) ;
#134=ORIENTED_EDGE('',*,*,#119,.T.) ;
#162=ORIENTED_EDGE('',*,*,#150,.T.) ;
#163=ORIENTED_EDGE('',*,*,#155,.F.) ;
#164=ORIENTED_EDGE('',*,*,#105,.F.) ;
#165=ORIENTED_EDGE('',*,*,#160,.T.) ;
#174=ORIENTED_EDGE('',*,*,#172,.T.) ;
#175=ORIENTED_EDGE('',*,*,#160,.F.) ;
#176=ORIENTED_EDGE('',*,*,#110,.F.) ;
#177=ORIENTED_EDGE('',*,*,#155,.T.) ;
#186=ORIENTED_EDGE('',*,*,#172,.F.) ;
#187=ORIENTED_EDGE('',*,*,#150,.F.) ;
#190=ORIENTED_EDGE('',*,*,#72,.T.) ;
#191=ORIENTED_EDGE('',*,*,#129,.T.) ;
#123=FACE_BOUND('',#120,.T.) ;
#192=FACE_BOUND('',#189,.T.) ;
#51=CLOSED_SHELL('Closed Shell',(#91,#124,#136,#167,#179,#193)) ;
#59=VECTOR('Line Direction',#58,1.) ;
#75=VECTOR('Line Direction',#74,1.) ;
#153=VECTOR('Line Direction',#152,1.) ;
#158=VECTOR('Line Direction',#157,1.) ;
#195=ADVANCED_BREP_SHAPE_REPRESENTATION('NONE',(#194),#46) ;
#49=SHAPE_REPRESENTATION(' ',(#48),#46) ;
#91=ADVANCED_FACE('PartBody',(#90),#56,.F.) ;
#124=ADVANCED_FACE('PartBody',(#114,#123),#96,.T.) ;
#136=ADVANCED_FACE('PartBody',(#135),#56,.F.) ;
#167=ADVANCED_FACE('PartBody',(#166),#141,.T.) ;
#179=ADVANCED_FACE('PartBody',(#178),#141,.T.) ;
#193=ADVANCED_FACE('PartBody',(#188,#192),#184,.F.) ;
#4=APPLICATION_PROTOCOL_DEFINITION('international standard','config_control_design',1994,#1) ;
#32=APPROVAL_DATE_TIME(#13,#21) ;
#194=MANIFOLD_SOLID_BREP('PartBody',#51) ;
#11=CALENDAR_DATE(2024,16,2) ;
#30=CC_DESIGN_APPROVAL(#21,(#16,#6,#14)) ;
#18=CC_DESIGN_DATE_AND_TIME_ASSIGNMENT(#13,#17,(#16)) ;
#29=CC_DESIGN_DATE_AND_TIME_ASSIGNMENT(#13,#28,(#14)) ;
#17=DATE_TIME_ROLE('classification_date') ;
#28=DATE_TIME_ROLE('creation_date') ;
#27=CC_DESIGN_PERSON_AND_ORGANIZATION_ASSIGNMENT(#25,#26,(#16)) ;
#33=CC_DESIGN_PERSON_AND_ORGANIZATION_ASSIGNMENT(#25,#34,(#6)) ;
#35=CC_DESIGN_PERSON_AND_ORGANIZATION_ASSIGNMENT(#25,#36,(#6,#14)) ;
#37=CC_DESIGN_PERSON_AND_ORGANIZATION_ASSIGNMENT(#25,#38,(#5)) ;
#26=PERSON_AND_ORGANIZATION_ROLE('classification_officer') ;
#34=PERSON_AND_ORGANIZATION_ROLE('design_supplier') ;
#36=PERSON_AND_ORGANIZATION_ROLE('creator') ;
#38=PERSON_AND_ORGANIZATION_ROLE('design_owner') ;
#39=CC_DESIGN_SECURITY_CLASSIFICATION(#16,(#6)) ;
#69=CIRCLE('generated circle',#68,15.) ;
#83=CIRCLE('generated circle',#82,15.) ;
#100=CIRCLE('generated circle',#99,25.) ;
#109=CIRCLE('generated circle',#108,25.) ;
#118=CIRCLE('generated circle',#117,15.) ;
#128=CIRCLE('generated circle',#127,15.) ;
#145=CIRCLE('generated circle',#144,25.) ;
#171=CIRCLE('generated circle',#170,25.) ;
#196=SHAPE_REPRESENTATION_RELATIONSHIP(' ',' ',#49,#195) ;
#56=CYLINDRICAL_SURFACE('generated cylinder',#55,15.) ;
#141=CYLINDRICAL_SURFACE('generated cylinder',#140,25.) ;
#3=DESIGN_CONTEXT(' ',#1,'design') ;
#65=EDGE_CURVE('',#62,#64,#60,.F.) ;
#72=EDGE_CURVE('',#71,#62,#69,.F.) ;
#79=EDGE_CURVE('',#71,#78,#76,.F.) ;
#84=EDGE_CURVE('',#78,#64,#83,.F.) ;
#105=EDGE_CURVE('',#102,#104,#100,.T.) ;
#110=EDGE_CURVE('',#104,#102,#109,.T.) ;
#119=EDGE_CURVE('',#64,#78,#118,.T.) ;
#129=EDGE_CURVE('',#62,#71,#128,.F.) ;
#150=EDGE_CURVE('',#147,#149,#145,.T.) ;
#155=EDGE_CURVE('',#104,#149,#154,.F.) ;
#160=EDGE_CURVE('',#102,#147,#159,.F.) ;
#172=EDGE_CURVE('',#149,#147,#171,.T.) ;
#85=EDGE_LOOP('',(#86,#87,#88,#89)) ;
#111=EDGE_LOOP('',(#112,#113)) ;
#120=EDGE_LOOP('',(#121,#122)) ;
#130=EDGE_LOOP('',(#131,#132,#133,#134)) ;
#161=EDGE_LOOP('',(#162,#163,#164,#165)) ;
#173=EDGE_LOOP('',(#174,#175,#176,#177)) ;
#185=EDGE_LOOP('',(#186,#187)) ;
#189=EDGE_LOOP('',(#190,#191)) ;
#90=FACE_OUTER_BOUND('',#85,.T.) ;
#114=FACE_OUTER_BOUND('',#111,.T.) ;
#135=FACE_OUTER_BOUND('',#130,.T.) ;
#166=FACE_OUTER_BOUND('',#161,.T.) ;
#178=FACE_OUTER_BOUND('',#173,.T.) ;
#188=FACE_OUTER_BOUND('',#185,.T.) ;
#45=UNCERTAINTY_MEASURE_WITH_UNIT(LENGTH_MEASURE(0.005),#41,'distance_accuracy_value','CONFUSED CURVE UNCERTAINTY') ;
#60=LINE('Line',#57,#59) ;
#76=LINE('Line',#73,#75) ;
#154=LINE('Line',#151,#153) ;
#159=LINE('Line',#156,#158) ;
#2=MECHANICAL_CONTEXT(' ',#1,'mechanical') ;
#24=PERSONAL_ADDRESS(' ',' ',' ',' ',' ',' ',' ',' ',' ',' ',' ',' ',(#22),' ') ;
#96=PLANE('Plane',#95) ;
#184=PLANE('Plane',#183) ;
#43=PLANE_ANGLE_MEASURE_WITH_UNIT(PLANE_ANGLE_MEASURE(0.0174532925199),#42) ;
#7=PRODUCT_CATEGORY('part',$) ;
#9=PRODUCT_CATEGORY_RELATIONSHIP(' ',' ',#7,#8) ;
#6=PRODUCT_DEFINITION_FORMATION_WITH_SPECIFIED_SOURCE('',' ',#5,.NOT_KNOWN.) ;
#8=PRODUCT_RELATED_PRODUCT_CATEGORY('detail',$,(#5)) ;
#50=SHAPE_DEFINITION_REPRESENTATION(#40,#49) ;
#62=VERTEX_POINT('',#61) ;
#64=VERTEX_POINT('',#63) ;
#71=VERTEX_POINT('',#70) ;
#78=VERTEX_POINT('',#77) ;
#102=VERTEX_POINT('',#101) ;
#104=VERTEX_POINT('',#103) ;
#147=VERTEX_POINT('',#146) ;
#149=VERTEX_POINT('',#148) ;
#41=(LENGTH_UNIT()NAMED_UNIT(*)SI_UNIT(.MILLI.,.METRE.)) ;
#42=(NAMED_UNIT(*)PLANE_ANGLE_UNIT()SI_UNIT($,.RADIAN.)) ;
#44=(NAMED_UNIT(*)SI_UNIT($,.STERADIAN.)SOLID_ANGLE_UNIT()) ;
#46=(GEOMETRIC_REPRESENTATION_CONTEXT(3)GLOBAL_UNCERTAINTY_ASSIGNED_CONTEXT((#45))GLOBAL_UNIT_ASSIGNED_CONTEXT((#41,#42,#44))REPRESENTATION_CONTEXT(' ',' ')) ;
ENDSEC;
END-ISO-10303-21;
