ISO-10303-21;
HEADER;
/* Generated by software containing ST-Developer
 * from STEP Tools, Inc. (www.steptools.com) 
 */

FILE_DESCRIPTION(
/* description */ ('CORPS DE BUTEE REGLABLE'),
/* implementation_level */ '2;1');

FILE_NAME(
/* name */ 
'C:\\Users\\Public\\Documents\\Autodesk\\Inventor 2022\\Espace de trav
ail\\Perso\\F004.stp',
/* time_stamp */ '2024-02-08T13:53:42+01:00',
/* author */ ('vvernier'),
/* organization */ (''),
/* preprocessor_version */ 'ST-DEVELOPER v18.1',
/* originating_system */ 'Autodesk Inventor 2022',
/* authorisation */ '');

FILE_SCHEMA (('AUTOMOTIVE_DESIGN { 1 0 10303 214 3 1 1 }'));
ENDSEC;

DATA;
#10=MECHANICAL_DESIGN_GEOMETRIC_PRESENTATION_REPRESENTATION('',(#13),#329);
#11=SHAPE_REPRESENTATION_RELATIONSHIP('SRR','None',#336,#12);
#12=ADVANCED_BREP_SHAPE_REPRESENTATION('',(#14),#328);
#13=STYLED_ITEM('',(#345),#14);
#14=MANIFOLD_SOLID_BREP('Solide2',#172);
#15=FACE_BOUND('',#40,.T.);
#16=FACE_BOUND('',#45,.T.);
#17=FACE_BOUND('',#48,.T.);
#18=FACE_BOUND('',#51,.T.);
#19=PLANE('',#202);
#20=PLANE('',#212);
#21=PLANE('',#215);
#22=PLANE('',#219);
#23=CONICAL_SURFACE('',#198,25.25,0.785398163397452);
#24=CONICAL_SURFACE('',#206,29.75,0.785398163397439);
#25=CONICAL_SURFACE('',#214,29.75,0.785398163397439);
#26=FACE_OUTER_BOUND('',#37,.T.);
#27=FACE_OUTER_BOUND('',#38,.T.);
#28=FACE_OUTER_BOUND('',#39,.T.);
#29=FACE_OUTER_BOUND('',#41,.T.);
#30=FACE_OUTER_BOUND('',#42,.T.);
#31=FACE_OUTER_BOUND('',#43,.T.);
#32=FACE_OUTER_BOUND('',#44,.T.);
#33=FACE_OUTER_BOUND('',#46,.T.);
#34=FACE_OUTER_BOUND('',#47,.T.);
#35=FACE_OUTER_BOUND('',#49,.T.);
#36=FACE_OUTER_BOUND('',#50,.T.);
#37=EDGE_LOOP('',(#115,#116,#117,#118));
#38=EDGE_LOOP('',(#119,#120,#121,#122,#123));
#39=EDGE_LOOP('',(#124));
#40=EDGE_LOOP('',(#125));
#41=EDGE_LOOP('',(#126,#127,#128,#129,#130));
#42=EDGE_LOOP('',(#131,#132,#133,#134,#135));
#43=EDGE_LOOP('',(#136,#137,#138,#139,#140,#141));
#44=EDGE_LOOP('',(#142));
#45=EDGE_LOOP('',(#143));
#46=EDGE_LOOP('',(#144,#145,#146,#147,#148));
#47=EDGE_LOOP('',(#149));
#48=EDGE_LOOP('',(#150));
#49=EDGE_LOOP('',(#151,#152,#153,#154));
#50=EDGE_LOOP('',(#155));
#51=EDGE_LOOP('',(#156));
#52=LINE('',#284,#59);
#53=LINE('',#290,#60);
#54=LINE('',#300,#61);
#55=LINE('',#306,#62);
#56=LINE('',#312,#63);
#57=LINE('',#317,#64);
#58=LINE('',#323,#65);
#59=VECTOR('',#226,25.188101);
#60=VECTOR('',#233,25.25);
#61=VECTOR('',#246,25.);
#62=VECTOR('',#253,29.75);
#63=VECTOR('',#260,30.);
#64=VECTOR('',#267,29.75);
#65=VECTOR('',#274,26.5);
#66=CIRCLE('',#196,25.188101);
#67=CIRCLE('',#197,25.188101);
#68=CIRCLE('',#199,25.5);
#69=CIRCLE('',#200,25.);
#70=CIRCLE('',#201,25.);
#71=CIRCLE('',#203,29.5);
#72=CIRCLE('',#205,25.);
#73=CIRCLE('',#207,30.);
#74=CIRCLE('',#208,30.);
#75=CIRCLE('',#210,30.);
#76=CIRCLE('',#211,30.);
#77=CIRCLE('',#213,29.5);
#78=CIRCLE('',#216,26.5);
#79=CIRCLE('',#218,26.5);
#80=VERTEX_POINT('',#281);
#81=VERTEX_POINT('',#283);
#82=VERTEX_POINT('',#287);
#83=VERTEX_POINT('',#289);
#84=VERTEX_POINT('',#291);
#85=VERTEX_POINT('',#295);
#86=VERTEX_POINT('',#298);
#87=VERTEX_POINT('',#302);
#88=VERTEX_POINT('',#303);
#89=VERTEX_POINT('',#308);
#90=VERTEX_POINT('',#309);
#91=VERTEX_POINT('',#314);
#92=VERTEX_POINT('',#319);
#93=VERTEX_POINT('',#322);
#94=EDGE_CURVE('',#80,#80,#66,.T.);
#95=EDGE_CURVE('',#80,#81,#52,.T.);
#96=EDGE_CURVE('',#81,#81,#67,.T.);
#97=EDGE_CURVE('',#82,#82,#68,.T.);
#98=EDGE_CURVE('',#82,#83,#53,.T.);
#99=EDGE_CURVE('',#83,#84,#69,.T.);
#100=EDGE_CURVE('',#84,#83,#70,.T.);
#101=EDGE_CURVE('',#85,#85,#71,.T.);
#102=EDGE_CURVE('',#86,#86,#72,.T.);
#103=EDGE_CURVE('',#86,#84,#54,.T.);
#104=EDGE_CURVE('',#87,#88,#73,.T.);
#105=EDGE_CURVE('',#88,#87,#74,.T.);
#106=EDGE_CURVE('',#87,#85,#55,.T.);
#107=EDGE_CURVE('',#89,#90,#75,.T.);
#108=EDGE_CURVE('',#90,#89,#76,.T.);
#109=EDGE_CURVE('',#90,#88,#56,.T.);
#110=EDGE_CURVE('',#91,#91,#77,.T.);
#111=EDGE_CURVE('',#91,#89,#57,.T.);
#112=EDGE_CURVE('',#92,#92,#78,.T.);
#113=EDGE_CURVE('',#92,#93,#58,.T.);
#114=EDGE_CURVE('',#93,#93,#79,.T.);
#115=ORIENTED_EDGE('',*,*,#94,.F.);
#116=ORIENTED_EDGE('',*,*,#95,.T.);
#117=ORIENTED_EDGE('',*,*,#96,.F.);
#118=ORIENTED_EDGE('',*,*,#95,.F.);
#119=ORIENTED_EDGE('',*,*,#97,.T.);
#120=ORIENTED_EDGE('',*,*,#98,.T.);
#121=ORIENTED_EDGE('',*,*,#99,.T.);
#122=ORIENTED_EDGE('',*,*,#100,.T.);
#123=ORIENTED_EDGE('',*,*,#98,.F.);
#124=ORIENTED_EDGE('',*,*,#101,.F.);
#125=ORIENTED_EDGE('',*,*,#97,.F.);
#126=ORIENTED_EDGE('',*,*,#102,.T.);
#127=ORIENTED_EDGE('',*,*,#103,.T.);
#128=ORIENTED_EDGE('',*,*,#99,.F.);
#129=ORIENTED_EDGE('',*,*,#100,.F.);
#130=ORIENTED_EDGE('',*,*,#103,.F.);
#131=ORIENTED_EDGE('',*,*,#104,.T.);
#132=ORIENTED_EDGE('',*,*,#105,.T.);
#133=ORIENTED_EDGE('',*,*,#106,.T.);
#134=ORIENTED_EDGE('',*,*,#101,.T.);
#135=ORIENTED_EDGE('',*,*,#106,.F.);
#136=ORIENTED_EDGE('',*,*,#107,.F.);
#137=ORIENTED_EDGE('',*,*,#108,.F.);
#138=ORIENTED_EDGE('',*,*,#109,.T.);
#139=ORIENTED_EDGE('',*,*,#104,.F.);
#140=ORIENTED_EDGE('',*,*,#105,.F.);
#141=ORIENTED_EDGE('',*,*,#109,.F.);
#142=ORIENTED_EDGE('',*,*,#110,.F.);
#143=ORIENTED_EDGE('',*,*,#94,.T.);
#144=ORIENTED_EDGE('',*,*,#110,.T.);
#145=ORIENTED_EDGE('',*,*,#111,.T.);
#146=ORIENTED_EDGE('',*,*,#107,.T.);
#147=ORIENTED_EDGE('',*,*,#108,.T.);
#148=ORIENTED_EDGE('',*,*,#111,.F.);
#149=ORIENTED_EDGE('',*,*,#112,.F.);
#150=ORIENTED_EDGE('',*,*,#96,.T.);
#151=ORIENTED_EDGE('',*,*,#112,.T.);
#152=ORIENTED_EDGE('',*,*,#113,.T.);
#153=ORIENTED_EDGE('',*,*,#114,.F.);
#154=ORIENTED_EDGE('',*,*,#113,.F.);
#155=ORIENTED_EDGE('',*,*,#114,.T.);
#156=ORIENTED_EDGE('',*,*,#102,.F.);
#157=CYLINDRICAL_SURFACE('',#195,25.188101);
#158=CYLINDRICAL_SURFACE('',#204,25.);
#159=CYLINDRICAL_SURFACE('',#209,30.);
#160=CYLINDRICAL_SURFACE('',#217,26.5);
#161=ADVANCED_FACE('',(#26),#157,.F.);
#162=ADVANCED_FACE('',(#27),#23,.F.);
#163=ADVANCED_FACE('',(#28,#15),#19,.T.);
#164=ADVANCED_FACE('',(#29),#158,.F.);
#165=ADVANCED_FACE('',(#30),#24,.T.);
#166=ADVANCED_FACE('',(#31),#159,.T.);
#167=ADVANCED_FACE('',(#32,#16),#20,.T.);
#168=ADVANCED_FACE('',(#33),#25,.T.);
#169=ADVANCED_FACE('',(#34,#17),#21,.T.);
#170=ADVANCED_FACE('',(#35),#160,.F.);
#171=ADVANCED_FACE('',(#36,#18),#22,.T.);
#172=CLOSED_SHELL('',(#161,#162,#163,#164,#165,#166,#167,#168,#169,#170,
#171));
#173=DERIVED_UNIT_ELEMENT(#176,1.);
#174=DERIVED_UNIT_ELEMENT(#331,-3.);
#175=DIMENSIONAL_EXPONENTS(1.,0.,0.,0.,0.,0.,0.);
#176=(
CONVERSION_BASED_UNIT('gram',#178)
MASS_UNIT()
NAMED_UNIT(#175)
);
#177=(
MASS_UNIT()
NAMED_UNIT(*)
SI_UNIT(.KILO.,.GRAM.)
);
#178=MASS_MEASURE_WITH_UNIT(MASS_MEASURE(0.001),#177);
#179=DERIVED_UNIT((#173,#174));
#180=MEASURE_REPRESENTATION_ITEM('density measure',
POSITIVE_RATIO_MEASURE(7.85),#179);
#181=PROPERTY_DEFINITION_REPRESENTATION(#186,#183);
#182=PROPERTY_DEFINITION_REPRESENTATION(#187,#184);
#183=REPRESENTATION('material name',(#185),#328);
#184=REPRESENTATION('density',(#180),#328);
#185=DESCRIPTIVE_REPRESENTATION_ITEM('Acier A37','Acier A37');
#186=PROPERTY_DEFINITION('material property','material name',#338);
#187=PROPERTY_DEFINITION('material property','density of part',#338);
#188=DATE_TIME_ROLE('creation_date');
#189=APPLIED_DATE_AND_TIME_ASSIGNMENT(#190,#188,(#338));
#190=DATE_AND_TIME(#191,#192);
#191=CALENDAR_DATE(2023,18,12);
#192=LOCAL_TIME(0,0,0.,#193);
#193=COORDINATED_UNIVERSAL_TIME_OFFSET(0,0,.BEHIND.);
#194=AXIS2_PLACEMENT_3D('placement',#279,#220,#221);
#195=AXIS2_PLACEMENT_3D('',#280,#222,#223);
#196=AXIS2_PLACEMENT_3D('',#282,#224,#225);
#197=AXIS2_PLACEMENT_3D('',#285,#227,#228);
#198=AXIS2_PLACEMENT_3D('',#286,#229,#230);
#199=AXIS2_PLACEMENT_3D('',#288,#231,#232);
#200=AXIS2_PLACEMENT_3D('',#292,#234,#235);
#201=AXIS2_PLACEMENT_3D('',#293,#236,#237);
#202=AXIS2_PLACEMENT_3D('',#294,#238,#239);
#203=AXIS2_PLACEMENT_3D('',#296,#240,#241);
#204=AXIS2_PLACEMENT_3D('',#297,#242,#243);
#205=AXIS2_PLACEMENT_3D('',#299,#244,#245);
#206=AXIS2_PLACEMENT_3D('',#301,#247,#248);
#207=AXIS2_PLACEMENT_3D('',#304,#249,#250);
#208=AXIS2_PLACEMENT_3D('',#305,#251,#252);
#209=AXIS2_PLACEMENT_3D('',#307,#254,#255);
#210=AXIS2_PLACEMENT_3D('',#310,#256,#257);
#211=AXIS2_PLACEMENT_3D('',#311,#258,#259);
#212=AXIS2_PLACEMENT_3D('',#313,#261,#262);
#213=AXIS2_PLACEMENT_3D('',#315,#263,#264);
#214=AXIS2_PLACEMENT_3D('',#316,#265,#266);
#215=AXIS2_PLACEMENT_3D('',#318,#268,#269);
#216=AXIS2_PLACEMENT_3D('',#320,#270,#271);
#217=AXIS2_PLACEMENT_3D('',#321,#272,#273);
#218=AXIS2_PLACEMENT_3D('',#324,#275,#276);
#219=AXIS2_PLACEMENT_3D('',#325,#277,#278);
#220=DIRECTION('axis',(0.,0.,1.));
#221=DIRECTION('refdir',(1.,0.,0.));
#222=DIRECTION('center_axis',(3.94430452610506E-32,0.,-1.));
#223=DIRECTION('ref_axis',(-1.,0.,-3.94430452610506E-32));
#224=DIRECTION('center_axis',(-3.94430452610506E-32,0.,1.));
#225=DIRECTION('ref_axis',(-1.,0.,-3.94430452610506E-32));
#226=DIRECTION('',(-3.94430452610506E-32,0.,1.));
#227=DIRECTION('center_axis',(3.94430452610506E-32,0.,-1.));
#228=DIRECTION('ref_axis',(-1.,0.,-3.94430452610506E-32));
#229=DIRECTION('center_axis',(-3.94430452610506E-32,0.,1.));
#230=DIRECTION('ref_axis',(1.,0.,1.99167852308275E-32));
#231=DIRECTION('center_axis',(-3.94430452610506E-32,0.,1.));
#232=DIRECTION('ref_axis',(1.,0.,3.94430452610506E-32));
#233=DIRECTION('',(0.70710678118655,8.65956056235496E-17,-0.707106781186545));
#234=DIRECTION('center_axis',(3.94430452610506E-32,0.,-1.));
#235=DIRECTION('ref_axis',(1.,0.,0.));
#236=DIRECTION('center_axis',(3.94430452610506E-32,0.,-1.));
#237=DIRECTION('ref_axis',(1.,0.,0.));
#238=DIRECTION('center_axis',(-3.94430452610506E-32,0.,1.));
#239=DIRECTION('ref_axis',(1.,0.,3.94430452610506E-32));
#240=DIRECTION('center_axis',(3.94430452610506E-32,0.,-1.));
#241=DIRECTION('ref_axis',(1.,0.,3.94430452610506E-32));
#242=DIRECTION('center_axis',(3.94430452610506E-32,0.,-1.));
#243=DIRECTION('ref_axis',(-1.,0.,0.));
#244=DIRECTION('center_axis',(3.94430452610506E-32,0.,-1.));
#245=DIRECTION('ref_axis',(1.,0.,3.94430452610506E-32));
#246=DIRECTION('',(-3.94430452610506E-32,0.,1.));
#247=DIRECTION('center_axis',(3.94430452610506E-32,0.,-1.));
#248=DIRECTION('ref_axis',(1.,0.,1.95557955495965E-32));
#249=DIRECTION('center_axis',(-3.94430452610506E-32,0.,1.));
#250=DIRECTION('ref_axis',(1.,0.,0.));
#251=DIRECTION('center_axis',(-3.94430452610506E-32,0.,1.));
#252=DIRECTION('ref_axis',(1.,0.,0.));
#253=DIRECTION('',(0.707106781186541,-8.65956056235485E-17,0.707106781186554));
#254=DIRECTION('center_axis',(3.94430452610506E-32,0.,-1.));
#255=DIRECTION('ref_axis',(-1.,0.,0.));
#256=DIRECTION('center_axis',(3.94430452610506E-32,0.,-1.));
#257=DIRECTION('ref_axis',(1.,0.,0.));
#258=DIRECTION('center_axis',(3.94430452610506E-32,0.,-1.));
#259=DIRECTION('ref_axis',(1.,0.,0.));
#260=DIRECTION('',(-3.94430452610506E-32,0.,1.));
#261=DIRECTION('center_axis',(3.94430452610506E-32,0.,-1.));
#262=DIRECTION('ref_axis',(-1.,0.,-3.94430452610506E-32));
#263=DIRECTION('center_axis',(-3.94430452610506E-32,0.,1.));
#264=DIRECTION('ref_axis',(1.,0.,3.94430452610506E-32));
#265=DIRECTION('center_axis',(-3.94430452610509E-32,0.,1.));
#266=DIRECTION('ref_axis',(1.,0.,1.95557955495965E-32));
#267=DIRECTION('',(-0.707106781186541,8.65956056235486E-17,0.707106781186554));
#268=DIRECTION('center_axis',(-3.94430452610506E-32,0.,1.));
#269=DIRECTION('ref_axis',(1.,0.,3.94430452610506E-32));
#270=DIRECTION('center_axis',(3.94430452610506E-32,0.,-1.));
#271=DIRECTION('ref_axis',(1.,0.,3.94430452610506E-32));
#272=DIRECTION('center_axis',(3.94430452610506E-32,0.,-1.));
#273=DIRECTION('ref_axis',(-1.,0.,0.));
#274=DIRECTION('',(-3.94430452610506E-32,0.,1.));
#275=DIRECTION('center_axis',(3.94430452610506E-32,0.,-1.));
#276=DIRECTION('ref_axis',(1.,0.,3.94430452610506E-32));
#277=DIRECTION('center_axis',(3.94430452610506E-32,0.,-1.));
#278=DIRECTION('ref_axis',(-1.,0.,-3.94430452610506E-32));
#279=CARTESIAN_POINT('',(0.,0.,0.));
#280=CARTESIAN_POINT('Origin',(-1.02865289901988E-30,0.,26.0794492973813));
#281=CARTESIAN_POINT('',(25.188101,-3.08465272662502E-15,-125.));
#282=CARTESIAN_POINT('Origin',(4.93038065763133E-30,0.,-125.));
#283=CARTESIAN_POINT('',(25.188101,-3.08465272662502E-15,-95.));
#284=CARTESIAN_POINT('',(25.188101,-3.08465272662502E-15,26.0794492973813));
#285=CARTESIAN_POINT('Origin',(3.74708929979981E-30,0.,-95.));
#286=CARTESIAN_POINT('Origin',(9.86076131526268E-33,0.,-0.249999999999999));
#287=CARTESIAN_POINT('',(-25.5,-3.12284933782575E-15,7.63278329429794E-16));
#288=CARTESIAN_POINT('Origin',(5.13170824337702E-47,0.,7.63278329429795E-16));
#289=CARTESIAN_POINT('',(-25.,3.06161699786838E-15,-0.499999999999998));
#290=CARTESIAN_POINT('',(-25.25,-3.09223316784707E-15,-0.249999999999999));
#291=CARTESIAN_POINT('',(25.,-3.06161699786838E-15,-0.499999999999998));
#292=CARTESIAN_POINT('Origin',(1.97215226305253E-32,0.,-0.499999999999998));
#293=CARTESIAN_POINT('Origin',(1.97215226305253E-32,0.,-0.499999999999998));
#294=CARTESIAN_POINT('Origin',(-30.,0.,7.66951701058566E-16));
#295=CARTESIAN_POINT('',(-29.5,3.61270805748469E-15,7.63278329429794E-16));
#296=CARTESIAN_POINT('Origin',(5.13170824337702E-47,0.,7.63278329429795E-16));
#297=CARTESIAN_POINT('Origin',(1.77493703674728E-30,0.,-45.));
#298=CARTESIAN_POINT('',(25.,-3.06161699786838E-15,-90.));
#299=CARTESIAN_POINT('Origin',(3.54987407349455E-30,0.,-90.));
#300=CARTESIAN_POINT('',(25.,-3.06161699786838E-15,-45.));
#301=CARTESIAN_POINT('Origin',(9.86076131526268E-33,0.,-0.249999999999999));
#302=CARTESIAN_POINT('',(-30.,-3.67394039744206E-15,-0.499999999999998));
#303=CARTESIAN_POINT('',(30.,-3.67394039744206E-15,-0.499999999999998));
#304=CARTESIAN_POINT('Origin',(1.97215226305253E-32,0.,-0.499999999999998));
#305=CARTESIAN_POINT('Origin',(1.97215226305253E-32,0.,-0.499999999999998));
#306=CARTESIAN_POINT('',(-29.75,3.64332422746338E-15,-0.249999999999999));
#307=CARTESIAN_POINT('Origin',(2.46519032881566E-30,0.,-62.5));
#308=CARTESIAN_POINT('',(-30.,3.67394039744206E-15,-124.5));
#309=CARTESIAN_POINT('',(30.,-3.67394039744206E-15,-124.5));
#310=CARTESIAN_POINT('Origin',(4.9106591350008E-30,0.,-124.5));
#311=CARTESIAN_POINT('Origin',(4.9106591350008E-30,0.,-124.5));
#312=CARTESIAN_POINT('',(30.,-3.67394039744206E-15,-62.5));
#313=CARTESIAN_POINT('Origin',(-24.5,0.,-125.));
#314=CARTESIAN_POINT('',(-29.5,-3.61270805748469E-15,-125.));
#315=CARTESIAN_POINT('Origin',(4.93038065763133E-30,0.,-125.));
#316=CARTESIAN_POINT('Origin',(4.92051989631606E-30,0.,-124.75));
#317=CARTESIAN_POINT('',(-29.75,3.64332422746338E-15,-124.75));
#318=CARTESIAN_POINT('Origin',(-26.5,0.,-95.));
#319=CARTESIAN_POINT('',(26.5,-3.24531401774049E-15,-95.));
#320=CARTESIAN_POINT('Origin',(3.74708929979981E-30,0.,-95.));
#321=CARTESIAN_POINT('Origin',(3.64848168664718E-30,0.,-92.5));
#322=CARTESIAN_POINT('',(26.5,-3.24531401774049E-15,-90.));
#323=CARTESIAN_POINT('',(26.5,-3.24531401774049E-15,-92.5));
#324=CARTESIAN_POINT('Origin',(3.54987407349455E-30,0.,-90.));
#325=CARTESIAN_POINT('Origin',(-25.,0.,-90.));
#326=UNCERTAINTY_MEASURE_WITH_UNIT(LENGTH_MEASURE(0.01),#330,
'DISTANCE_ACCURACY_VALUE',
'Maximum model space distance between geometric entities at asserted c
onnectivities');
#327=UNCERTAINTY_MEASURE_WITH_UNIT(LENGTH_MEASURE(0.01),#330,
'DISTANCE_ACCURACY_VALUE',
'Maximum model space distance between geometric entities at asserted c
onnectivities');
#328=(
GEOMETRIC_REPRESENTATION_CONTEXT(3)
GLOBAL_UNCERTAINTY_ASSIGNED_CONTEXT((#326))
GLOBAL_UNIT_ASSIGNED_CONTEXT((#330,#332,#333))
REPRESENTATION_CONTEXT('','3D')
);
#329=(
GEOMETRIC_REPRESENTATION_CONTEXT(3)
GLOBAL_UNCERTAINTY_ASSIGNED_CONTEXT((#327))
GLOBAL_UNIT_ASSIGNED_CONTEXT((#330,#332,#333))
REPRESENTATION_CONTEXT('','3D')
);
#330=(
LENGTH_UNIT()
NAMED_UNIT(*)
SI_UNIT(.MILLI.,.METRE.)
);
#331=(
LENGTH_UNIT()
NAMED_UNIT(*)
SI_UNIT(.CENTI.,.METRE.)
);
#332=(
NAMED_UNIT(*)
PLANE_ANGLE_UNIT()
SI_UNIT($,.RADIAN.)
);
#333=(
NAMED_UNIT(*)
SI_UNIT($,.STERADIAN.)
SOLID_ANGLE_UNIT()
);
#334=SHAPE_DEFINITION_REPRESENTATION(#335,#336);
#335=PRODUCT_DEFINITION_SHAPE('',$,#338);
#336=SHAPE_REPRESENTATION('',(#194),#328);
#337=PRODUCT_DEFINITION_CONTEXT('part definition',#342,'design');
#338=PRODUCT_DEFINITION('F004','F004',#339,#337);
#339=PRODUCT_DEFINITION_FORMATION('',$,#344);
#340=PRODUCT_RELATED_PRODUCT_CATEGORY('F004','F004',(#344));
#341=APPLICATION_PROTOCOL_DEFINITION('international standard',
'automotive_design',2009,#342);
#342=APPLICATION_CONTEXT(
'Core Data for Automotive Mechanical Design Process');
#343=PRODUCT_CONTEXT('part definition',#342,'mechanical');
#344=PRODUCT('F004','F004','CORPS DE BUTEE REGLABLE',(#343));
#345=PRESENTATION_STYLE_ASSIGNMENT((#346));
#346=SURFACE_STYLE_USAGE(.BOTH.,#349);
#347=SURFACE_STYLE_RENDERING_WITH_PROPERTIES($,#353,(#348));
#348=SURFACE_STYLE_TRANSPARENT(0.);
#349=SURFACE_SIDE_STYLE('',(#350,#347));
#350=SURFACE_STYLE_FILL_AREA(#351);
#351=FILL_AREA_STYLE('',(#352));
#352=FILL_AREA_STYLE_COLOUR('',#353);
#353=COLOUR_RGB('',0.87843137254902,0.874509803921569,0.858823529411765);
ENDSEC;
END-ISO-10303-21;
